  0
SECTION
  2
HEADER
  9
$ACADVER
  1
AC1014
  9
$HANDSEED
  5
FFFF
  9
$MEASUREMENT
 70
     1
  0
ENDSEC
  0
SECTION
  2
TABLES
  0
TABLE
  2
VPORT
  5
8
330
0
100
AcDbSymbolTable
 70
     4
  0
VPORT
  5
2E
330
8
100
AcDbSymbolTableRecord
100
AcDbViewportTableRecord
  2
*ACTIVE
 70
     0
 10
0.0
 20
0.0
 11
1.0
 21
1.0
 12
210.0
 22
148.5
 13
0.0
 23
0.0
 14
10.0
 24
10.0
 15
10.0
 25
10.0
 16
0.0
 26
0.0
 36
1.0
 17
0.0
 27
0.0
 37
0.0
 40
341.0
 41
1.24
 42
50.0
 43
0.0
 44
0.0
 50
0.0
 51
0.0
 71
     0
 72
   100
 73
     1
 74
     3
 75
     0
 76
     0
 77
     0
 78
     0
  0
ENDTAB
  0
TABLE
  2
LTYPE
  5
5
330
0
100
AcDbSymbolTable
 70
     1
  0
LTYPE
  5
14
330
5
100
AcDbSymbolTableRecord
100
AcDbLinetypeTableRecord
  2
BYBLOCK
 70
     0
  3

 72
    65
 73
     0
 40
0.0
  0
LTYPE
  5
15
330
5
100
AcDbSymbolTableRecord
100
AcDbLinetypeTableRecord
  2
BYLAYER
 70
     0
  3

 72
    65
 73
     0
 40
0.0
  0
LTYPE
  5
16
330
5
100
AcDbSymbolTableRecord
100
AcDbLinetypeTableRecord
  2
CONTINUOUS
 70
     0
  3
Solid line
 72
    65
 73
     0
 40
0.0
  0
ENDTAB
  0
TABLE
  2
LAYER
  5
2
100
AcDbSymbolTable
 70
2
  0
LAYER
  5
50
100
AcDbSymbolTableRecord
100
AcDbLayerTableRecord
  2
0
 70
0
  6
CONTINUOUS
  0
LAYER
  5
51
100
AcDbSymbolTableRecord
100
AcDbLayerTableRecord
  2
compi_laser_schneiden
 70
0
  6
CONTINUOUS
  0
ENDTAB
  0
TABLE
  2
STYLE
  5
3
330
0
100
AcDbSymbolTable
 70
     1
  0
STYLE
  5
11
330
3
100
AcDbSymbolTableRecord
100
AcDbTextStyleTableRecord
  2
STANDARD
 70
     0
 40
0.0
 41
1.0
 50
0.0
 71
     0
 42
2.5
  3
txt
  4

  0
ENDTAB
  0
TABLE
  2
VIEW
  5
6
330
0
100
AcDbSymbolTable
 70
     0
  0
ENDTAB
  0
TABLE
  2
UCS
  5
7
330
0
100
AcDbSymbolTable
 70
     0
  0
ENDTAB
  0
TABLE
  2
APPID
  5
9
330
0
100
AcDbSymbolTable
 70
     2
  0
APPID
  5
12
330
9
100
AcDbSymbolTableRecord
100
AcDbRegAppTableRecord
  2
ACAD
 70
     0
  0
ENDTAB
  0
TABLE
  2
DIMSTYLE
  5
A
330
0
100
AcDbSymbolTable
 70
     1
  0
DIMSTYLE
105
27
330
A
100
AcDbSymbolTableRecord
100
AcDbDimStyleTableRecord
  2
ISO-25
 70
     0
  3

  4

  5

  6

  7

 40
1.0
 41
2.5
 42
0.625
 43
3.75
 44
1.25
 45
0.0
 46
0.0
 47
0.0
 48
0.0
140
2.5
141
2.5
142
0.0
143
0.03937007874016
144
1.0
145
0.0
146
1.0
147
0.625
 71
     0
 72
     0
 73
     0
 74
     0
 75
     0
 76
     0
 77
     1
 78
     8
170
     0
171
     3
172
     1
173
     0
174
     0
175
     0
176
     0
177
     0
178
     0
270
     2
271
     2
272
     2
273
     2
274
     3
340
11
275
     0
280
     0
281
     0
282
     0
283
     0
284
     8
285
     0
286
     0
287
     3
288
     0
  0
ENDTAB
  0
TABLE
  2
BLOCK_RECORD
  5
1
330
0
100
AcDbSymbolTable
 70
     1
  0
BLOCK_RECORD
  5
1F
330
1
100
AcDbSymbolTableRecord
100
AcDbBlockTableRecord
  2
*MODEL_SPACE
  0
BLOCK_RECORD
  5
1B
330
1
100
AcDbSymbolTableRecord
100
AcDbBlockTableRecord
  2
*PAPER_SPACE
  0
ENDTAB
  0
ENDSEC
  0
SECTION
  2
BLOCKS
  0
BLOCK
  5
20
330
1F
100
AcDbEntity
  8
0
100
AcDbBlockBegin
  2
*MODEL_SPACE
 70
     0
 10
0.0
 20
0.0
 30
0.0
  3
*MODEL_SPACE
  1

  0
ENDBLK
  5
21
330
1F
100
AcDbEntity
  8
0
100
AcDbBlockEnd
  0
BLOCK
  5
1C
330
1B
100
AcDbEntity
 67
     1
  8
0
100
AcDbBlockBegin
  2
*PAPER_SPACE
  1

  0
ENDBLK
  5
1D
330
1B
100
AcDbEntity
 67
     1
  8
0
100
AcDbBlockEnd
  0
ENDSEC
  0
SECTION
  2
ENTITIES
  0
LWPOLYLINE
  5
100
100
AcDbEntity
  8
compi_laser_schneiden
 62
7
100
AcDbPolyline
 90
2
 70
0
 10
112.511265
 20
563.235969
 30
0.0
 10
112.510559
 20
568.960847
 30
0.0
  0
LWPOLYLINE
  5
101
100
AcDbEntity
  8
compi_laser_schneiden
 62
7
100
AcDbPolyline
 90
2
 70
0
 10
112.510595
 20
510.839508
 30
0.0
 10
112.510595
 20
558.406653
 30
0.0
  0
LWPOLYLINE
  5
102
100
AcDbEntity
  8
compi_laser_schneiden
 62
7
100
AcDbPolyline
 90
2
 70
0
 10
172.461439
 20
422.550661
 30
0.0
 10
172.461439
 20
396.433111
 30
0.0
  0
LWPOLYLINE
  5
103
100
AcDbEntity
  8
compi_laser_schneiden
 62
7
100
AcDbPolyline
 90
2
 70
0
 10
172.461439
 20
451.787119
 30
0.0
 10
172.461439
 20
422.579236
 30
0.0
  0
LWPOLYLINE
  5
104
100
AcDbEntity
  8
compi_laser_schneiden
 62
7
100
AcDbPolyline
 90
2
 70
0
 10
110.511050
 20
422.680024
 30
0.0
 10
110.510345
 20
451.804299
 30
0.0
  0
SPLINE
  5
105
100
AcDbEntity
  8
compi_laser_schneiden
 62
7
100
AcDbSpline
 70
8
 71
3
 72
8
 73
4
 74
0
 40
0
 40
0
 40
0
 40
0
 40
1
 40
1
 40
1
 40
1
 10
117.616913
 20
444.983727
 30
0.0
 10
117.616913
 20
444.983727
 30
0.0
 10
133.638316
 20
446.370849
 30
0.0
 10
141.482330
 20
446.370849
 30
0.0
  0
SPLINE
  5
106
100
AcDbEntity
  8
compi_laser_schneiden
 62
7
100
AcDbSpline
 70
8
 71
3
 72
8
 73
4
 74
0
 40
0
 40
0
 40
0
 40
0
 40
1
 40
1
 40
1
 40
1
 10
141.482471
 20
446.370744
 30
0.0
 10
149.326837
 20
446.370744
 30
0.0
 10
164.681490
 20
444.983621
 30
0.0
 10
164.681490
 20
444.983621
 30
0.0
  0
SPLINE
  5
107
100
AcDbEntity
  8
compi_laser_schneiden
 62
7
100
AcDbSpline
 70
8
 71
3
 72
8
 73
4
 74
0
 40
0
 40
0
 40
0
 40
0
 40
1
 40
1
 40
1
 40
1
 10
164.681737
 20
444.983727
 30
0.0
 10
164.681737
 20
444.983727
 30
0.0
 10
165.913990
 20
432.410374
 30
0.0
 10
165.913990
 20
424.999572
 30
0.0
  0
SPLINE
  5
108
100
AcDbEntity
  8
compi_laser_schneiden
 62
7
100
AcDbSpline
 70
8
 71
3
 72
8
 73
4
 74
0
 40
0
 40
0
 40
0
 40
0
 40
1
 40
1
 40
1
 40
1
 10
165.914025
 20
424.999430
 30
0.0
 10
165.914025
 20
417.587569
 30
0.0
 10
164.681772
 20
405.015275
 30
0.0
 10
164.681772
 20
405.015275
 30
0.0
  0
LWPOLYLINE
  5
109
100
AcDbEntity
  8
compi_laser_schneiden
 62
7
100
AcDbPolyline
 90
2
 70
0
 10
110.510345
 20
396.263883
 30
0.0
 10
110.511050
 20
422.679883
 30
0.0
  0
SPLINE
  5
10a
100
AcDbEntity
  8
compi_laser_schneiden
 62
7
100
AcDbSpline
 70
8
 71
3
 72
8
 73
4
 74
0
 40
0
 40
0
 40
0
 40
0
 40
1
 40
1
 40
1
 40
1
 10
164.681737
 20
405.014428
 30
0.0
 10
164.681737
 20
405.014428
 30
0.0
 10
149.327084
 20
403.627306
 30
0.0
 10
141.483070
 20
403.627306
 30
0.0
  0
SPLINE
  5
10b
100
AcDbEntity
  8
compi_laser_schneiden
 62
7
100
AcDbSpline
 70
8
 71
3
 72
8
 73
4
 74
0
 40
0
 40
0
 40
0
 40
0
 40
1
 40
1
 40
1
 40
1
 10
141.482471
 20
403.627447
 30
0.0
 10
133.638457
 20
403.627447
 30
0.0
 10
117.617054
 20
405.014569
 30
0.0
 10
117.617054
 20
405.014569
 30
0.0
  0
SPLINE
  5
10c
100
AcDbEntity
  8
compi_laser_schneiden
 62
7
100
AcDbSpline
 70
8
 71
3
 72
8
 73
4
 74
0
 40
0
 40
0
 40
0
 40
0
 40
1
 40
1
 40
1
 40
1
 10
117.616913
 20
405.014428
 30
0.0
 10
117.616913
 20
405.014428
 30
0.0
 10
116.384307
 20
418.338139
 30
0.0
 10
116.384307
 20
424.998584
 30
0.0
  0
SPLINE
  5
10d
100
AcDbEntity
  8
compi_laser_schneiden
 62
7
100
AcDbSpline
 70
8
 71
3
 72
8
 73
4
 74
0
 40
0
 40
0
 40
0
 40
0
 40
1
 40
1
 40
1
 40
1
 10
116.384237
 20
424.999430
 30
0.0
 10
116.384237
 20
431.660933
 30
0.0
 10
117.616842
 20
444.983586
 30
0.0
 10
117.616842
 20
444.983586
 30
0.0
  0
LWPOLYLINE
  5
10e
100
AcDbEntity
  8
compi_laser_schneiden
 62
7
100
AcDbPolyline
 90
2
 70
0
 10
112.510596
 20
568.911385
 30
0.0
 10
112.511301
 20
577.235530
 30
0.0
  0
LWPOLYLINE
  5
10f
100
AcDbEntity
  8
compi_laser_schneiden
 62
7
100
AcDbPolyline
 90
2
 70
0
 10
170.461895
 20
396.348125
 30
0.0
 10
170.461190
 20
391.478027
 30
0.0
  0
LWPOLYLINE
  5
110
100
AcDbEntity
  8
compi_laser_schneiden
 62
7
100
AcDbPolyline
 90
2
 70
0
 10
170.461225
 20
386.648782
 30
0.0
 10
170.461225
 20
383.329849
 30
0.0
  0
LWPOLYLINE
  5
111
100
AcDbEntity
  8
compi_laser_schneiden
 62
7
100
AcDbPolyline
 90
2
 70
0
 10
112.512642
 20
383.262256
 30
0.0
 10
112.511936
 20
386.651392
 30
0.0
  0
LWPOLYLINE
  5
112
100
AcDbEntity
  8
compi_laser_schneiden
 62
7
100
AcDbPolyline
 90
2
 70
0
 10
112.511266
 20
391.471924
 30
0.0
 10
112.510560
 20
396.348019
 30
0.0
  0
LWPOLYLINE
  5
113
100
AcDbEntity
  8
compi_laser_schneiden
 62
7
100
AcDbPolyline
 90
4
 70
0
 10
112.511266
 20
386.643279
 30
0.0
 10
109.612491
 20
386.643279
 30
0.0
 10
109.612491
 20
391.472101
 30
0.0
 10
112.511266
 20
391.472101
 30
0.0
  0
LWPOLYLINE
  5
114
100
AcDbEntity
  8
compi_laser_schneiden
 62
7
100
AcDbPolyline
 90
4
 70
0
 10
170.461225
 20
391.478133
 30
0.0
 10
173.359294
 20
391.478133
 30
0.0
 10
173.359294
 20
386.648958
 30
0.0
 10
170.461225
 20
386.648958
 30
0.0
  0
LWPOLYLINE
  5
115
100
AcDbEntity
  8
compi_laser_schneiden
 62
7
100
AcDbPolyline
 90
2
 70
0
 10
54.723938
 20
443.557976
 30
0.0
 10
49.894763
 20
451.922690
 30
0.0
  0
LWPOLYLINE
  5
116
100
AcDbEntity
  8
compi_laser_schneiden
 62
7
100
AcDbPolyline
 90
4
 70
1
 10
111.544584
 20
451.922690
 30
0.0
 10
83.134332
 20
448.197004
 30
0.0
 10
111.544584
 20
451.922690
 30
0.0
 10
111.544584
 20
451.922690
 30
0.0
  0
LWPOLYLINE
  5
117
100
AcDbEntity
  8
compi_laser_schneiden
 62
7
100
AcDbPolyline
 90
4
 70
1
 10
83.134261
 20
448.197145
 30
0.0
 10
54.724008
 20
443.558117
 30
0.0
 10
83.134261
 20
448.197145
 30
0.0
 10
83.134261
 20
448.197145
 30
0.0
  0
LWPOLYLINE
  5
118
100
AcDbEntity
  8
compi_laser_schneiden
 62
7
100
AcDbPolyline
 90
4
 70
0
 10
111.544584
 20
511.805165
 30
0.0
 10
68.701134
 20
511.559632
 30
0.0
 10
49.894551
 20
511.805165
 30
0.0
 10
30.582790
 20
511.805165
 30
0.0
  0
LWPOLYLINE
  5
119
100
AcDbEntity
  8
compi_laser_schneiden
 62
7
100
AcDbPolyline
 90
3
 70
0
 10
30.413280
 20
511.805165
 30
0.0
 10
30.413280
 20
451.922549
 30
0.0
 10
49.894727
 20
451.922549
 30
0.0
  0
LWPOLYLINE
  5
11a
100
AcDbEntity
  8
compi_laser_schneiden
 62
7
100
AcDbPolyline
 90
6
 70
1
 10
37.344129
 20
501.902834
 30
0.0
 10
38.306859
 20
501.902834
 30
0.0
 10
38.306859
 20
463.272256
 30
0.0
 10
37.344129
 20
463.272256
 30
0.0
 10
37.344129
 20
501.902834
 30
0.0
 10
37.344129
 20
501.902834
 30
0.0
  0
LWPOLYLINE
  5
11b
100
AcDbEntity
  8
compi_laser_schneiden
 62
7
100
AcDbPolyline
 90
6
 70
1
 10
79.710976
 20
504.862992
 30
0.0
 10
105.719165
 20
504.862992
 30
0.0
 10
105.719165
 20
503.897440
 30
0.0
 10
79.710976
 20
503.897440
 30
0.0
 10
79.710976
 20
504.862992
 30
0.0
 10
79.710976
 20
504.862992
 30
0.0
  0
LWPOLYLINE
  5
11c
100
AcDbEntity
  8
compi_laser_schneiden
 62
7
100
AcDbPolyline
 90
6
 70
1
 10
52.684424
 20
453.295877
 30
0.0
 10
55.225482
 20
448.755627
 30
0.0
 10
54.343537
 20
448.232810
 30
0.0
 10
51.802479
 20
452.773413
 30
0.0
 10
52.684424
 20
453.295877
 30
0.0
 10
52.684424
 20
453.295877
 30
0.0
  0
LWPOLYLINE
  5
11d
100
AcDbEntity
  8
compi_laser_schneiden
 62
7
100
AcDbPolyline
 90
2
 70
0
 10
112.511266
 20
376.492662
 30
0.0
 10
112.510560
 20
383.327026
 30
0.0
  0
LWPOLYLINE
  5
11e
100
AcDbEntity
  8
compi_laser_schneiden
 62
7
100
AcDbPolyline
 90
4
 70
0
 10
170.461225
 20
375.844292
 30
0.0
 10
170.461225
 20
372.943400
 30
0.0
 10
112.510419
 20
372.943400
 30
0.0
 10
112.511125
 20
376.492698
 30
0.0
  0
LWPOLYLINE
  5
11f
100
AcDbEntity
  8
compi_laser_schneiden
 62
7
100
AcDbPolyline
 90
2
 70
0
 10
170.461225
 20
383.329778
 30
0.0
 10
170.461225
 20
375.844186
 30
0.0
  0
LWPOLYLINE
  5
120
100
AcDbEntity
  8
compi_laser_schneiden
 62
7
100
AcDbPolyline
 90
6
 70
1
 10
60.230940
 20
509.847390
 30
0.0
 10
65.204401
 20
509.847390
 30
0.0
 10
65.204401
 20
508.881484
 30
0.0
 10
60.230940
 20
508.881484
 30
0.0
 10
60.230940
 20
509.847390
 30
0.0
 10
60.230940
 20
509.847390
 30
0.0
  0
LWPOLYLINE
  5
121
100
AcDbEntity
  8
compi_laser_schneiden
 62
7
100
AcDbPolyline
 90
2
 70
0
 10
228.248553
 20
443.557976
 30
0.0
 10
233.077728
 20
451.922690
 30
0.0
  0
LWPOLYLINE
  5
122
100
AcDbEntity
  8
compi_laser_schneiden
 62
7
100
AcDbPolyline
 90
4
 70
1
 10
171.427236
 20
451.922690
 30
0.0
 10
199.837489
 20
448.197004
 30
0.0
 10
171.427236
 20
451.922690
 30
0.0
 10
171.427236
 20
451.922690
 30
0.0
  0
LWPOLYLINE
  5
123
100
AcDbEntity
  8
compi_laser_schneiden
 62
7
100
AcDbPolyline
 90
4
 70
1
 10
199.838230
 20
448.197145
 30
0.0
 10
228.248483
 20
443.558117
 30
0.0
 10
199.838230
 20
448.197145
 30
0.0
 10
199.838230
 20
448.197145
 30
0.0
  0
LWPOLYLINE
  5
124
100
AcDbEntity
  8
compi_laser_schneiden
 62
7
100
AcDbPolyline
 90
4
 70
0
 10
171.427236
 20
511.805165
 30
0.0
 10
214.271039
 20
511.559632
 30
0.0
 10
233.077975
 20
511.805165
 30
0.0
 10
252.389736
 20
511.805165
 30
0.0
  0
LWPOLYLINE
  5
125
100
AcDbEntity
  8
compi_laser_schneiden
 62
7
100
AcDbPolyline
 90
3
 70
0
 10
252.559211
 20
511.805165
 30
0.0
 10
252.559211
 20
451.922549
 30
0.0
 10
233.077764
 20
451.922549
 30
0.0
  0
LWPOLYLINE
  5
126
100
AcDbEntity
  8
compi_laser_schneiden
 62
7
100
AcDbPolyline
 90
6
 70
1
 10
244.665984
 20
501.902834
 30
0.0
 10
245.628715
 20
501.902834
 30
0.0
 10
245.628715
 20
463.272256
 30
0.0
 10
244.665984
 20
463.272256
 30
0.0
 10
244.665984
 20
501.902834
 30
0.0
 10
244.665984
 20
501.902834
 30
0.0
  0
LWPOLYLINE
  5
127
100
AcDbEntity
  8
compi_laser_schneiden
 62
7
100
AcDbPolyline
 90
6
 70
1
 10
177.089284
 20
504.862992
 30
0.0
 10
203.183198
 20
504.862992
 30
0.0
 10
203.183198
 20
503.897440
 30
0.0
 10
177.089284
 20
503.897440
 30
0.0
 10
177.089284
 20
504.862992
 30
0.0
 10
177.089284
 20
504.862992
 30
0.0
  0
LWPOLYLINE
  5
128
100
AcDbEntity
  8
compi_laser_schneiden
 62
7
100
AcDbPolyline
 90
6
 70
1
 10
231.229243
 20
452.607043
 30
0.0
 10
228.558010
 20
447.988477
 30
0.0
 10
227.629852
 20
448.520113
 30
0.0
 10
230.301790
 20
453.139385
 30
0.0
 10
231.229243
 20
452.607043
 30
0.0
 10
231.229243
 20
452.607043
 30
0.0
  0
LWPOLYLINE
  5
129
100
AcDbEntity
  8
compi_laser_schneiden
 62
7
100
AcDbPolyline
 90
6
 70
1
 10
218.301490
 20
509.846331
 30
0.0
 10
223.644662
 20
509.846331
 30
0.0
 10
223.644662
 20
508.880426
 30
0.0
 10
218.301490
 20
508.880426
 30
0.0
 10
218.301490
 20
509.846331
 30
0.0
 10
218.301490
 20
509.846331
 30
0.0
  0
LWPOLYLINE
  5
12a
100
AcDbEntity
  8
compi_laser_schneiden
 62
7
100
AcDbPolyline
 90
4
 70
0
 10
112.511266
 20
558.406616
 30
0.0
 10
109.612491
 20
558.406616
 30
0.0
 10
109.612491
 20
563.235791
 30
0.0
 10
112.511266
 20
563.235791
 30
0.0
  0
LWPOLYLINE
  5
12b
100
AcDbEntity
  8
compi_laser_schneiden
 62
7
100
AcDbPolyline
 90
6
 70
1
 10
131.838126
 20
510.852806
 30
0.0
 10
152.109090
 20
510.852806
 30
0.0
 10
152.109090
 20
503.862515
 30
0.0
 10
131.838126
 20
503.862515
 30
0.0
 10
131.838126
 20
510.852806
 30
0.0
 10
131.838126
 20
510.852806
 30
0.0
  0
LWPOLYLINE
  5
12c
100
AcDbEntity
  8
compi_laser_schneiden
 62
7
100
AcDbPolyline
 90
2
 70
0
 10
170.461895
 20
563.235967
 30
0.0
 10
170.462601
 20
568.960845
 30
0.0
  0
LWPOLYLINE
  5
12d
100
AcDbEntity
  8
compi_laser_schneiden
 62
7
100
AcDbPolyline
 90
2
 70
0
 10
170.462601
 20
510.839507
 30
0.0
 10
170.462601
 20
558.406651
 30
0.0
  0
LWPOLYLINE
  5
12e
100
AcDbEntity
  8
compi_laser_schneiden
 62
7
100
AcDbPolyline
 90
6
 70
0
 10
170.462601
 20
568.911385
 30
0.0
 10
170.461895
 20
577.235530
 30
0.0
 10
170.461542
 20
584.352398
 30
0.0
 10
164.113306
 20
584.352398
 30
0.0
 10
112.510737
 20
584.352398
 30
0.0
 10
112.511090
 20
577.102815
 30
0.0
  0
LWPOLYLINE
  5
12f
100
AcDbEntity
  8
compi_laser_schneiden
 62
7
100
AcDbPolyline
 90
4
 70
0
 10
170.461895
 20
558.406616
 30
0.0
 10
173.360670
 20
558.406616
 30
0.0
 10
173.360670
 20
563.235791
 30
0.0
 10
170.461895
 20
563.235791
 30
0.0
  0
LWPOLYLINE
  5
130
100
AcDbEntity
  8
compi_laser_schneiden
 62
7
100
AcDbPolyline
 90
2
 70
0
 10
112.520579
 20
452.888666
 30
0.0
 10
111.544443
 20
452.888666
 30
0.0
  0
LWPOLYLINE
  5
131
100
AcDbEntity
  8
compi_laser_schneiden
 62
7
100
AcDbPolyline
 90
2
 70
0
 10
170.461225
 20
452.888666
 30
0.0
 10
171.427130
 20
452.888666
 30
0.0
  0
LWPOLYLINE
  5
132
100
AcDbEntity
  8
compi_laser_schneiden
 62
7
100
AcDbPolyline
 90
2
 70
0
 10
112.511266
 20
510.839507
 30
0.0
 10
111.714694
 20
510.839507
 30
0.0
  0
LWPOLYLINE
  5
133
100
AcDbEntity
  8
compi_laser_schneiden
 62
7
100
AcDbPolyline
 90
2
 70
0
 10
170.629006
 20
510.839507
 30
0.0
 10
171.598087
 20
510.839507
 30
0.0
  0
LWPOLYLINE
  5
134
100
AcDbEntity
  8
compi_laser_schneiden
 62
7
100
AcDbPolyline
 90
2
 70
0
 10
112.520579
 20
452.888666
 30
0.0
 10
112.520579
 20
451.888541
 30
0.0
  0
LWPOLYLINE
  5
135
100
AcDbEntity
  8
compi_laser_schneiden
 62
7
100
AcDbPolyline
 90
2
 70
0
 10
170.461225
 20
452.888666
 30
0.0
 10
170.461225
 20
451.832802
 30
0.0
  0
LWPOLYLINE
  5
136
100
AcDbEntity
  8
compi_laser_schneiden
 62
7
100
AcDbPolyline
 90
2
 70
0
 10
110.510346
 20
451.804156
 30
0.0
 10
112.520474
 20
451.888470
 30
0.0
  0
LWPOLYLINE
  5
137
100
AcDbEntity
  8
compi_laser_schneiden
 62
7
100
AcDbPolyline
 90
2
 70
0
 10
110.510346
 20
396.263881
 30
0.0
 10
112.510596
 20
396.348195
 30
0.0
  0
LWPOLYLINE
  5
138
100
AcDbEntity
  8
compi_laser_schneiden
 62
7
100
AcDbPolyline
 90
2
 70
0
 10
170.461895
 20
396.348125
 30
0.0
 10
172.461440
 20
396.433144
 30
0.0
  0
SPLINE
  5
139
100
AcDbEntity
  8
compi_laser_schneiden
 62
7
100
AcDbSpline
 70
8
 71
3
 72
8
 73
4
 74
0
 40
0
 40
0
 40
0
 40
0
 40
1
 40
1
 40
1
 40
1
 10
108.585237
 20
409.491849
 30
0.0
 10
108.585237
 20
390.162096
 30
0.0
 10
92.915201
 20
374.492060
 30
0.0
 10
73.585449
 20
374.492060
 30
0.0
  0
SPLINE
  5
13a
100
AcDbEntity
  8
compi_laser_schneiden
 62
7
100
AcDbSpline
 70
8
 71
3
 72
8
 73
4
 74
0
 40
0
 40
0
 40
0
 40
0
 40
1
 40
1
 40
1
 40
1
 10
73.585449
 20
374.492060
 30
0.0
 10
54.255343
 20
374.492060
 30
0.0
 10
38.585307
 20
390.162096
 30
0.0
 10
38.585307
 20
409.491849
 30
0.0
  0
SPLINE
  5
13b
100
AcDbEntity
  8
compi_laser_schneiden
 62
7
100
AcDbSpline
 70
8
 71
3
 72
8
 73
4
 74
0
 40
0
 40
0
 40
0
 40
0
 40
1
 40
1
 40
1
 40
1
 10
38.585307
 20
409.491849
 30
0.0
 10
38.585307
 20
428.821954
 30
0.0
 10
54.255343
 20
444.491990
 30
0.0
 10
73.585449
 20
444.491990
 30
0.0
  0
SPLINE
  5
13c
100
AcDbEntity
  8
compi_laser_schneiden
 62
7
100
AcDbSpline
 70
8
 71
3
 72
8
 73
4
 74
0
 40
0
 40
0
 40
0
 40
0
 40
1
 40
1
 40
1
 40
1
 10
73.585449
 20
444.491990
 30
0.0
 10
92.915201
 20
444.491990
 30
0.0
 10
108.585237
 20
428.821954
 30
0.0
 10
108.585237
 20
409.491849
 30
0.0
  0
LWPOLYLINE
  5
13d
100
AcDbEntity
  8
compi_laser_schneiden
 62
7
100
AcDbPolyline
 90
2
 70
0
 10
172.461440
 20
451.787117
 30
0.0
 10
170.461190
 20
451.832625
 30
0.0
  0
LWPOLYLINE
  5
13e
100
AcDbEntity
  8
compi_laser_schneiden
 62
7
100
AcDbPolyline
 90
2
 70
1
 10
108.585237
 20
409.491849
 30
0.0
 10
108.585237
 20
409.491849
 30
0.0
  0
LWPOLYLINE
  5
13f
100
AcDbEntity
  8
compi_laser_schneiden
 62
2
100
AcDbPolyline
 90
6
 70
1
 10
48.902893
 20
404.491365
 30
0.0
 10
47.903120
 20
404.491365
 30
0.0
 10
47.903120
 20
414.491556
 30
0.0
 10
48.902893
 20
414.491556
 30
0.0
 10
48.902893
 20
404.491365
 30
0.0
 10
48.902893
 20
404.491365
 30
0.0
  0
LWPOLYLINE
  5
140
100
AcDbEntity
  8
compi_laser_schneiden
 62
2
100
AcDbPolyline
 90
6
 70
1
 10
64.104440
 20
392.554423
 30
0.0
 10
63.104668
 20
392.554423
 30
0.0
 10
63.104668
 20
402.554615
 30
0.0
 10
64.104440
 20
402.554615
 30
0.0
 10
64.104440
 20
392.554423
 30
0.0
 10
64.104440
 20
392.554423
 30
0.0
  0
LWPOLYLINE
  5
141
100
AcDbEntity
  8
compi_laser_schneiden
 62
2
100
AcDbPolyline
 90
6
 70
1
 10
52.030374
 20
394.233363
 30
0.0
 10
51.089162
 20
394.570266
 30
0.0
 10
54.459249
 20
403.985552
 30
0.0
 10
55.400812
 20
403.648296
 30
0.0
 10
52.030374
 20
394.233363
 30
0.0
 10
52.030374
 20
394.233363
 30
0.0
  0
LWPOLYLINE
  5
142
100
AcDbEntity
  8
compi_laser_schneiden
 62
2
100
AcDbPolyline
 90
6
 70
1
 10
94.101840
 20
393.024323
 30
0.0
 10
93.102068
 20
393.024323
 30
0.0
 10
93.102068
 20
403.024515
 30
0.0
 10
94.101840
 20
403.024515
 30
0.0
 10
94.101840
 20
393.024323
 30
0.0
 10
94.101840
 20
393.024323
 30
0.0
  0
LWPOLYLINE
  5
143
100
AcDbEntity
  8
compi_laser_schneiden
 62
2
100
AcDbPolyline
 90
6
 70
1
 10
61.617709
 20
422.616381
 30
0.0
 10
60.617937
 20
422.616381
 30
0.0
 10
60.617937
 20
432.616573
 30
0.0
 10
61.617709
 20
432.616573
 30
0.0
 10
61.617709
 20
422.616381
 30
0.0
 10
61.617709
 20
422.616381
 30
0.0
  0
LWPOLYLINE
  5
144
100
AcDbEntity
  8
compi_laser_schneiden
 62
2
100
AcDbPolyline
 90
6
 70
1
 10
71.950429
 20
396.689367
 30
0.0
 10
72.452079
 20
397.554378
 30
0.0
 10
81.102896
 20
392.537525
 30
0.0
 10
80.601246
 20
391.672867
 30
0.0
 10
71.950429
 20
396.689367
 30
0.0
 10
71.950429
 20
396.689367
 30
0.0
  0
LWPOLYLINE
  5
145
100
AcDbEntity
  8
compi_laser_schneiden
 62
2
100
AcDbPolyline
 90
6
 70
1
 10
51.619740
 20
420.437943
 30
0.0
 10
52.121390
 20
421.302954
 30
0.0
 10
60.772207
 20
416.286102
 30
0.0
 10
60.270557
 20
415.421443
 30
0.0
 10
51.619740
 20
420.437943
 30
0.0
 10
51.619740
 20
420.437943
 30
0.0
  0
LWPOLYLINE
  5
146
100
AcDbEntity
  8
compi_laser_schneiden
 62
2
100
AcDbPolyline
 90
6
 70
1
 10
61.950379
 20
409.991523
 30
0.0
 10
71.950570
 20
409.991523
 30
0.0
 10
71.950570
 20
408.991751
 30
0.0
 10
61.950379
 20
408.991751
 30
0.0
 10
61.950379
 20
409.991523
 30
0.0
 10
61.950379
 20
409.991523
 30
0.0
  0
LWPOLYLINE
  5
147
100
AcDbEntity
  8
compi_laser_schneiden
 62
2
100
AcDbPolyline
 90
6
 70
1
 10
85.502564
 20
429.952783
 30
0.0
 10
86.209531
 20
430.659750
 30
0.0
 10
93.280609
 20
423.588672
 30
0.0
 10
92.573642
 20
422.881705
 30
0.0
 10
85.502564
 20
429.952783
 30
0.0
 10
85.502564
 20
429.952783
 30
0.0
  0
LWPOLYLINE
  5
148
100
AcDbEntity
  8
compi_laser_schneiden
 62
2
100
AcDbPolyline
 90
6
 70
1
 10
66.950298
 20
385.093526
 30
0.0
 10
76.950490
 20
385.093526
 30
0.0
 10
76.950490
 20
384.093754
 30
0.0
 10
66.950298
 20
384.093754
 30
0.0
 10
66.950298
 20
385.093526
 30
0.0
 10
66.950298
 20
385.093526
 30
0.0
  0
LWPOLYLINE
  5
149
100
AcDbEntity
  8
compi_laser_schneiden
 62
2
100
AcDbPolyline
 90
6
 70
1
 10
83.763334
 20
397.665009
 30
0.0
 10
84.672443
 20
398.081287
 30
0.0
 10
88.836984
 20
388.989850
 30
0.0
 10
87.927876
 20
388.573573
 30
0.0
 10
83.763334
 20
397.665009
 30
0.0
 10
83.763334
 20
397.665009
 30
0.0
  0
LWPOLYLINE
  5
14a
100
AcDbEntity
  8
compi_laser_schneiden
 62
2
100
AcDbPolyline
 90
6
 70
1
 10
68.300026
 20
436.458676
 30
0.0
 10
78.300218
 20
436.458676
 30
0.0
 10
78.300218
 20
435.458904
 30
0.0
 10
68.300026
 20
435.458904
 30
0.0
 10
68.300026
 20
436.458676
 30
0.0
 10
68.300026
 20
436.458676
 30
0.0
  0
LWPOLYLINE
  5
14b
100
AcDbEntity
  8
compi_laser_schneiden
 62
2
100
AcDbPolyline
 90
6
 70
1
 10
67.950423
 20
428.770942
 30
0.0
 10
77.950615
 20
428.770942
 30
0.0
 10
77.950615
 20
427.771170
 30
0.0
 10
67.950423
 20
427.771170
 30
0.0
 10
67.950423
 20
428.770942
 30
0.0
 10
67.950423
 20
428.770942
 30
0.0
  0
LWPOLYLINE
  5
14c
100
AcDbEntity
  8
compi_laser_schneiden
 62
2
100
AcDbPolyline
 90
6
 70
1
 10
66.950298
 20
420.362131
 30
0.0
 10
76.950490
 20
420.362131
 30
0.0
 10
76.950490
 20
419.362359
 30
0.0
 10
66.950298
 20
419.362359
 30
0.0
 10
66.950298
 20
420.362131
 30
0.0
 10
66.950298
 20
420.362131
 30
0.0
  0
LWPOLYLINE
  5
14d
100
AcDbEntity
  8
compi_laser_schneiden
 62
2
100
AcDbPolyline
 90
6
 70
1
 10
97.884323
 20
415.491329
 30
0.0
 10
98.884095
 20
415.491329
 30
0.0
 10
98.884095
 20
405.491137
 30
0.0
 10
97.884323
 20
405.491137
 30
0.0
 10
97.884323
 20
415.491329
 30
0.0
 10
97.884323
 20
415.491329
 30
0.0
  0
LWPOLYLINE
  5
14e
100
AcDbEntity
  8
compi_laser_schneiden
 62
2
100
AcDbPolyline
 90
6
 70
1
 10
87.800170
 20
419.409984
 30
0.0
 10
88.799943
 20
419.409984
 30
0.0
 10
88.799943
 20
409.409792
 30
0.0
 10
87.800170
 20
409.409792
 30
0.0
 10
87.800170
 20
419.409984
 30
0.0
 10
87.800170
 20
419.409984
 30
0.0
  0
LWPOLYLINE
  5
14f
100
AcDbEntity
  8
compi_laser_schneiden
 62
2
100
AcDbPolyline
 90
6
 70
1
 10
80.983093
 20
414.491204
 30
0.0
 10
81.982865
 20
414.491204
 30
0.0
 10
81.982865
 20
404.491012
 30
0.0
 10
80.983093
 20
404.491012
 30
0.0
 10
80.983093
 20
414.491204
 30
0.0
 10
80.983093
 20
414.491204
 30
0.0
  0
LWPOLYLINE
  5
150
100
AcDbEntity
  8
compi_laser_schneiden
 62
2
100
AcDbPolyline
 90
2
 70
0
 10
36.716255
 20
554.142979
 30
0.0
 10
36.716255
 20
579.142929
 30
0.0
  0
LWPOLYLINE
  5
151
100
AcDbEntity
  8
compi_laser_schneiden
 62
2
100
AcDbPolyline
 90
2
 70
0
 10
97.428993
 20
549.143095
 30
0.0
 10
40.429276
 20
549.143095
 30
0.0
  0
LWPOLYLINE
  5
152
100
AcDbEntity
  8
compi_laser_schneiden
 62
2
100
AcDbPolyline
 90
6
 70
0
 10
40.429029
 20
579.142999
 30
0.0
 10
40.429029
 20
584.142919
 30
0.0
 10
97.429099
 20
584.142919
 30
0.0
 10
97.429099
 20
579.142999
 30
0.0
 10
101.098340
 20
579.142999
 30
0.0
 10
101.098340
 20
554.143049
 30
0.0
  0
LWPOLYLINE
  5
153
100
AcDbEntity
  8
compi_laser_schneiden
 62
2
100
AcDbPolyline
 90
2
 70
0
 10
36.716255
 20
579.142823
 30
0.0
 10
40.428888
 20
579.142823
 30
0.0
  0
LWPOLYLINE
  5
154
100
AcDbEntity
  8
compi_laser_schneiden
 62
2
100
AcDbPolyline
 90
2
 70
0
 10
36.716255
 20
554.142979
 30
0.0
 10
40.428888
 20
554.142979
 30
0.0
  0
LWPOLYLINE
  5
155
100
AcDbEntity
  8
compi_laser_schneiden
 62
2
100
AcDbPolyline
 90
2
 70
0
 10
40.429029
 20
554.142979
 30
0.0
 10
40.429029
 20
549.143059
 30
0.0
  0
LWPOLYLINE
  5
156
100
AcDbEntity
  8
compi_laser_schneiden
 62
2
100
AcDbPolyline
 90
2
 70
0
 10
97.428993
 20
549.142918
 30
0.0
 10
97.428993
 20
554.142838
 30
0.0
  0
LWPOLYLINE
  5
157
100
AcDbEntity
  8
compi_laser_schneiden
 62
2
100
AcDbPolyline
 90
2
 70
0
 10
97.428993
 20
554.142979
 30
0.0
 10
101.098235
 20
554.142979
 30
0.0
  0
LWPOLYLINE
  5
158
100
AcDbEntity
  8
compi_laser_schneiden
 62
2
100
AcDbPolyline
 90
3
 70
0
 10
97.428993
 20
549.143095
 30
0.0
 10
97.428993
 20
554.143014
 30
0.0
 10
101.098235
 20
554.142979
 30
0.0
  0
SPLINE
  5
159
100
AcDbEntity
  8
compi_laser_schneiden
 62
2
100
AcDbSpline
 70
8
 71
3
 72
8
 73
4
 74
0
 40
0
 40
0
 40
0
 40
0
 40
1
 40
1
 40
1
 40
1
 10
71.179081
 20
556.142841
 30
0.0
 10
71.179081
 20
554.900357
 30
0.0
 10
70.171900
 20
553.892824
 30
0.0
 10
68.929064
 20
553.892824
 30
0.0
  0
SPLINE
  5
15a
100
AcDbEntity
  8
compi_laser_schneiden
 62
2
100
AcDbSpline
 70
8
 71
3
 72
8
 73
4
 74
0
 40
0
 40
0
 40
0
 40
0
 40
1
 40
1
 40
1
 40
1
 10
68.929064
 20
553.892824
 30
0.0
 10
67.686581
 20
553.892824
 30
0.0
 10
66.679047
 20
554.900357
 30
0.0
 10
66.679047
 20
556.142841
 30
0.0
  0
SPLINE
  5
15b
100
AcDbEntity
  8
compi_laser_schneiden
 62
2
100
AcDbSpline
 70
8
 71
3
 72
8
 73
4
 74
0
 40
0
 40
0
 40
0
 40
0
 40
1
 40
1
 40
1
 40
1
 10
66.679047
 20
556.142841
 30
0.0
 10
66.679047
 20
557.385324
 30
0.0
 10
67.686581
 20
558.392857
 30
0.0
 10
68.929064
 20
558.392857
 30
0.0
  0
SPLINE
  5
15c
100
AcDbEntity
  8
compi_laser_schneiden
 62
2
100
AcDbSpline
 70
8
 71
3
 72
8
 73
4
 74
0
 40
0
 40
0
 40
0
 40
0
 40
1
 40
1
 40
1
 40
1
 10
68.929064
 20
558.392857
 30
0.0
 10
70.171900
 20
558.392857
 30
0.0
 10
71.179081
 20
557.385324
 30
0.0
 10
71.179081
 20
556.142841
 30
0.0
  0
LWPOLYLINE
  5
15d
100
AcDbEntity
  8
compi_laser_schneiden
 62
2
100
AcDbPolyline
 90
2
 70
0
 10
68.929099
 20
584.143025
 30
0.0
 10
68.929099
 20
577.102639
 30
0.0
  0
LWPOLYLINE
  5
15e
100
AcDbEntity
  8
compi_laser_schneiden
 62
2
100
AcDbPolyline
 90
2
 70
1
 10
71.179081
 20
556.142841
 30
0.0
 10
71.179081
 20
556.142841
 30
0.0
  0
LWPOLYLINE
  5
15f
100
AcDbEntity
  8
compi_laser_schneiden
 62
2
100
AcDbPolyline
 90
6
 70
1
 10
56.429054
 20
564.142712
 30
0.0
 10
53.429032
 20
564.142712
 30
0.0
 10
53.429032
 20
569.142631
 30
0.0
 10
56.429054
 20
569.142631
 30
0.0
 10
56.429054
 20
564.142712
 30
0.0
 10
56.429054
 20
564.142712
 30
0.0
  0
LWPOLYLINE
  5
160
100
AcDbEntity
  8
compi_laser_schneiden
 62
2
100
AcDbPolyline
 90
6
 70
1
 10
84.429026
 20
564.142712
 30
0.0
 10
81.429004
 20
564.142712
 30
0.0
 10
81.429004
 20
569.142631
 30
0.0
 10
84.429026
 20
569.142631
 30
0.0
 10
84.429026
 20
564.142712
 30
0.0
 10
84.429026
 20
564.142712
 30
0.0
  0
LWPOLYLINE
  5
161
100
AcDbEntity
  8
compi_laser_schneiden
 62
2
100
AcDbPolyline
 90
6
 70
1
 10
93.928979
 20
542.328698
 30
0.0
 10
43.929079
 20
542.328698
 30
0.0
 10
43.929079
 20
547.328617
 30
0.0
 10
93.928979
 20
547.328617
 30
0.0
 10
93.928979
 20
542.328698
 30
0.0
 10
93.928979
 20
542.328698
 30
0.0
  0
LWPOLYLINE
  5
162
100
AcDbEntity
  8
compi_laser_schneiden
 62
7
100
AcDbPolyline
 90
4
 70
0
 10
92.167630
 20
525.806210
 30
0.0
 10
92.167630
 20
517.306382
 30
0.0
 10
45.167399
 20
517.306382
 30
0.0
 10
45.167399
 20
524.341124
 30
0.0
  0
LWPOLYLINE
  5
163
100
AcDbEntity
  8
compi_laser_schneiden
 62
7
100
AcDbPolyline
 90
4
 70
0
 10
45.167576
 20
530.260699
 30
0.0
 10
45.167576
 20
537.306377
 30
0.0
 10
92.167806
 20
537.306377
 30
0.0
 10
92.167806
 20
528.806197
 30
0.0
  0
LWPOLYLINE
  5
164
100
AcDbEntity
  8
compi_laser_schneiden
 62
7
100
AcDbPolyline
 90
4
 70
0
 10
92.167630
 20
528.806197
 30
0.0
 10
95.167652
 20
528.806197
 30
0.0
 10
95.167652
 20
525.806174
 30
0.0
 10
92.167630
 20
525.806174
 30
0.0
  0
LWPOLYLINE
  5
165
100
AcDbEntity
  8
compi_laser_schneiden
 62
7
100
AcDbPolyline
 90
6
 70
1
 10
46.211551
 20
528.806373
 30
0.0
 10
47.211676
 20
528.806373
 30
0.0
 10
47.211676
 20
525.806351
 30
0.0
 10
46.211551
 20
525.806351
 30
0.0
 10
46.211551
 20
528.806373
 30
0.0
 10
46.211551
 20
528.806373
 30
0.0
  0
LWPOLYLINE
  5
166
100
AcDbEntity
  8
compi_laser_schneiden
 62
7
100
AcDbPolyline
 90
2
 70
0
 10
45.211673
 20
524.351672
 30
0.0
 10
42.425081
 20
524.341088
 30
0.0
  0
SPLINE
  5
167
100
AcDbEntity
  8
compi_laser_schneiden
 62
7
100
AcDbSpline
 70
8
 71
3
 72
8
 73
4
 74
0
 40
0
 40
0
 40
0
 40
0
 40
1
 40
1
 40
1
 40
1
 10
42.424940
 20
524.346168
 30
0.0
 10
40.748540
 20
524.346168
 30
0.0
 10
39.389640
 20
525.671202
 30
0.0
 10
39.389640
 20
527.306679
 30
0.0
  0
SPLINE
  5
168
100
AcDbEntity
  8
compi_laser_schneiden
 62
7
100
AcDbSpline
 70
8
 71
3
 72
8
 73
4
 74
0
 40
0
 40
0
 40
0
 40
0
 40
1
 40
1
 40
1
 40
1
 10
39.389640
 20
527.306679
 30
0.0
 10
39.389640
 20
528.941804
 30
0.0
 10
40.748540
 20
530.266838
 30
0.0
 10
42.424940
 20
530.266838
 30
0.0
  0
SPLINE
  5
169
100
AcDbEntity
  8
compi_laser_schneiden
 62
7
100
AcDbSpline
 70
8
 71
3
 72
8
 73
4
 74
0
 40
0
 40
0
 40
0
 40
0
 40
1
 40
1
 40
1
 40
1
 10
42.912056
 20
526.362928
 30
0.0
 10
42.391003
 20
526.362928
 30
0.0
 10
41.969434
 20
526.785203
 30
0.0
 10
41.969434
 20
527.305550
 30
0.0
  0
SPLINE
  5
16a
100
AcDbEntity
  8
compi_laser_schneiden
 62
7
100
AcDbSpline
 70
8
 71
3
 72
8
 73
4
 74
0
 40
0
 40
0
 40
0
 40
0
 40
1
 40
1
 40
1
 40
1
 10
41.969434
 20
527.305550
 30
0.0
 10
41.969434
 20
527.826603
 30
0.0
 10
42.391003
 20
528.249231
 30
0.0
 10
42.912056
 20
528.249231
 30
0.0
  0
SPLINE
  5
16b
100
AcDbEntity
  8
compi_laser_schneiden
 62
7
100
AcDbSpline
 70
8
 71
3
 72
8
 73
4
 74
0
 40
0
 40
0
 40
0
 40
0
 40
1
 40
1
 40
1
 40
1
 10
42.912056
 20
528.249231
 30
0.0
 10
43.433109
 20
528.249231
 30
0.0
 10
43.854678
 20
527.826603
 30
0.0
 10
43.854678
 20
527.305550
 30
0.0
  0
SPLINE
  5
16c
100
AcDbEntity
  8
compi_laser_schneiden
 62
7
100
AcDbSpline
 70
8
 71
3
 72
8
 73
4
 74
0
 40
0
 40
0
 40
0
 40
0
 40
1
 40
1
 40
1
 40
1
 10
43.854678
 20
527.305550
 30
0.0
 10
43.854678
 20
526.785203
 30
0.0
 10
43.433109
 20
526.362928
 30
0.0
 10
42.912056
 20
526.362928
 30
0.0
  0
LWPOLYLINE
  5
16d
100
AcDbEntity
  8
compi_laser_schneiden
 62
7
100
AcDbPolyline
 90
2
 70
0
 10
42.424940
 20
530.250010
 30
0.0
 10
45.211532
 20
530.260594
 30
0.0
  0
SPLINE
  5
16e
100
AcDbEntity
  8
compi_laser_schneiden
 62
7
100
AcDbSpline
 70
8
 71
3
 72
8
 73
4
 74
0
 40
0
 40
0
 40
0
 40
0
 40
1
 40
1
 40
1
 40
1
 10
161.320365
 20
576.292343
 30
0.0
 10
160.799312
 20
576.292343
 30
0.0
 10
160.377742
 20
576.714618
 30
0.0
 10
160.377742
 20
577.234965
 30
0.0
  0
SPLINE
  5
16f
100
AcDbEntity
  8
compi_laser_schneiden
 62
7
100
AcDbSpline
 70
8
 71
3
 72
8
 73
4
 74
0
 40
0
 40
0
 40
0
 40
0
 40
1
 40
1
 40
1
 40
1
 10
160.377742
 20
577.234965
 30
0.0
 10
160.377742
 20
577.756018
 30
0.0
 10
160.799312
 20
578.178646
 30
0.0
 10
161.320365
 20
578.178646
 30
0.0
  0
SPLINE
  5
170
100
AcDbEntity
  8
compi_laser_schneiden
 62
7
100
AcDbSpline
 70
8
 71
3
 72
8
 73
4
 74
0
 40
0
 40
0
 40
0
 40
0
 40
1
 40
1
 40
1
 40
1
 10
161.320365
 20
578.178646
 30
0.0
 10
161.841417
 20
578.178646
 30
0.0
 10
162.262987
 20
577.756018
 30
0.0
 10
162.262987
 20
577.234965
 30
0.0
  0
SPLINE
  5
171
100
AcDbEntity
  8
compi_laser_schneiden
 62
7
100
AcDbSpline
 70
8
 71
3
 72
8
 73
4
 74
0
 40
0
 40
0
 40
0
 40
0
 40
1
 40
1
 40
1
 40
1
 10
162.262987
 20
577.234965
 30
0.0
 10
162.262987
 20
576.714618
 30
0.0
 10
161.841417
 20
576.292343
 30
0.0
 10
161.320365
 20
576.292343
 30
0.0
  0
LWPOLYLINE
  5
172
100
AcDbEntity
  8
compi_laser_schneiden
 62
7
100
AcDbPolyline
 90
2
 70
1
 10
42.912056
 20
526.362928
 30
0.0
 10
42.912056
 20
526.362928
 30
0.0
  0
SPLINE
  5
173
100
AcDbEntity
  8
compi_laser_schneiden
 62
7
100
AcDbSpline
 70
8
 71
3
 72
8
 73
4
 74
0
 40
0
 40
0
 40
0
 40
0
 40
1
 40
1
 40
1
 40
1
 10
151.166432
 20
576.292343
 30
0.0
 10
150.645380
 20
576.292343
 30
0.0
 10
150.223810
 20
576.714618
 30
0.0
 10
150.223810
 20
577.234965
 30
0.0
  0
SPLINE
  5
174
100
AcDbEntity
  8
compi_laser_schneiden
 62
7
100
AcDbSpline
 70
8
 71
3
 72
8
 73
4
 74
0
 40
0
 40
0
 40
0
 40
0
 40
1
 40
1
 40
1
 40
1
 10
150.223810
 20
577.234965
 30
0.0
 10
150.223810
 20
577.756018
 30
0.0
 10
150.645380
 20
578.178646
 30
0.0
 10
151.166432
 20
578.178646
 30
0.0
  0
SPLINE
  5
175
100
AcDbEntity
  8
compi_laser_schneiden
 62
7
100
AcDbSpline
 70
8
 71
3
 72
8
 73
4
 74
0
 40
0
 40
0
 40
0
 40
0
 40
1
 40
1
 40
1
 40
1
 10
151.166432
 20
578.178646
 30
0.0
 10
151.687485
 20
578.178646
 30
0.0
 10
152.109055
 20
577.756018
 30
0.0
 10
152.109055
 20
577.234965
 30
0.0
  0
SPLINE
  5
176
100
AcDbEntity
  8
compi_laser_schneiden
 62
7
100
AcDbSpline
 70
8
 71
3
 72
8
 73
4
 74
0
 40
0
 40
0
 40
0
 40
0
 40
1
 40
1
 40
1
 40
1
 10
152.109055
 20
577.234965
 30
0.0
 10
152.109055
 20
576.714618
 30
0.0
 10
151.687485
 20
576.292343
 30
0.0
 10
151.166432
 20
576.292343
 30
0.0
  0
LWPOLYLINE
  5
177
100
AcDbEntity
  8
compi_laser_schneiden
 62
7
100
AcDbPolyline
 90
2
 70
1
 10
161.320365
 20
576.292343
 30
0.0
 10
161.320365
 20
576.292343
 30
0.0
  0
LWPOLYLINE
  5
178
100
AcDbEntity
  8
compi_laser_schneiden
 62
7
100
AcDbPolyline
 90
2
 70
1
 10
151.166432
 20
576.292343
 30
0.0
 10
151.166432
 20
576.292343
 30
0.0
  0
LWPOLYLINE
  5
179
100
AcDbEntity
  8
compi_laser_schneiden
 62
7
100
AcDbPolyline
 90
6
 70
1
 10
58.167649
 20
522.306654
 30
0.0
 10
58.167649
 20
532.306493
 30
0.0
 10
77.167554
 20
532.306493
 30
0.0
 10
77.167554
 20
522.306654
 30
0.0
 10
58.167649
 20
522.306654
 30
0.0
 10
58.167649
 20
522.306654
 30
0.0
  0
LWPOLYLINE
  5
17a
100
AcDbEntity
  8
compi_laser_schneiden
 62
7
100
AcDbPolyline
 90
2
 70
0
 10
112.511266
 20
350.380228
 30
0.0
 10
112.510560
 20
356.105105
 30
0.0
  0
LWPOLYLINE
  5
17b
100
AcDbEntity
  8
compi_laser_schneiden
 62
7
100
AcDbPolyline
 90
2
 70
0
 10
112.510596
 20
297.983767
 30
0.0
 10
112.510596
 20
345.550912
 30
0.0
  0
LWPOLYLINE
  5
17c
100
AcDbEntity
  8
compi_laser_schneiden
 62
7
100
AcDbPolyline
 90
2
 70
0
 10
172.461440
 20
209.694743
 30
0.0
 10
172.461440
 20
183.577546
 30
0.0
  0
LWPOLYLINE
  5
17d
100
AcDbEntity
  8
compi_laser_schneiden
 62
7
100
AcDbPolyline
 90
2
 70
0
 10
172.461440
 20
238.931201
 30
0.0
 10
172.461440
 20
209.723318
 30
0.0
  0
LWPOLYLINE
  5
17e
100
AcDbEntity
  8
compi_laser_schneiden
 62
7
100
AcDbPolyline
 90
2
 70
0
 10
110.511051
 20
209.824283
 30
0.0
 10
110.510346
 20
238.948558
 30
0.0
  0
SPLINE
  5
17f
100
AcDbEntity
  8
compi_laser_schneiden
 62
7
100
AcDbSpline
 70
8
 71
3
 72
8
 73
4
 74
0
 40
0
 40
0
 40
0
 40
0
 40
1
 40
1
 40
1
 40
1
 10
117.616913
 20
232.127811
 30
0.0
 10
117.616913
 20
232.127811
 30
0.0
 10
133.638316
 20
233.514934
 30
0.0
 10
141.482330
 20
233.514934
 30
0.0
  0
SPLINE
  5
180
100
AcDbEntity
  8
compi_laser_schneiden
 62
7
100
AcDbSpline
 70
8
 71
3
 72
8
 73
4
 74
0
 40
0
 40
0
 40
0
 40
0
 40
1
 40
1
 40
1
 40
1
 10
141.482471
 20
233.514828
 30
0.0
 10
149.326837
 20
233.514828
 30
0.0
 10
164.681490
 20
232.127705
 30
0.0
 10
164.681490
 20
232.127705
 30
0.0
  0
SPLINE
  5
181
100
AcDbEntity
  8
compi_laser_schneiden
 62
7
100
AcDbSpline
 70
8
 71
3
 72
8
 73
4
 74
0
 40
0
 40
0
 40
0
 40
0
 40
1
 40
1
 40
1
 40
1
 10
164.681737
 20
232.127811
 30
0.0
 10
164.681737
 20
232.127811
 30
0.0
 10
165.913990
 20
219.554459
 30
0.0
 10
165.913990
 20
212.143656
 30
0.0
  0
SPLINE
  5
182
100
AcDbEntity
  8
compi_laser_schneiden
 62
7
100
AcDbSpline
 70
8
 71
3
 72
8
 73
4
 74
0
 40
0
 40
0
 40
0
 40
0
 40
1
 40
1
 40
1
 40
1
 10
165.914025
 20
212.143515
 30
0.0
 10
165.914025
 20
204.731654
 30
0.0
 10
164.681772
 20
192.159359
 30
0.0
 10
164.681772
 20
192.159359
 30
0.0
  0
LWPOLYLINE
  5
183
100
AcDbEntity
  8
compi_laser_schneiden
 62
7
100
AcDbPolyline
 90
2
 70
0
 10
110.510346
 20
183.407965
 30
0.0
 10
110.511051
 20
209.824318
 30
0.0
  0
SPLINE
  5
184
100
AcDbEntity
  8
compi_laser_schneiden
 62
7
100
AcDbSpline
 70
8
 71
3
 72
8
 73
4
 74
0
 40
0
 40
0
 40
0
 40
0
 40
1
 40
1
 40
1
 40
1
 10
164.681737
 20
192.158512
 30
0.0
 10
164.681737
 20
192.158512
 30
0.0
 10
149.327084
 20
190.771390
 30
0.0
 10
141.483070
 20
190.771390
 30
0.0
  0
SPLINE
  5
185
100
AcDbEntity
  8
compi_laser_schneiden
 62
7
100
AcDbSpline
 70
8
 71
3
 72
8
 73
4
 74
0
 40
0
 40
0
 40
0
 40
0
 40
1
 40
1
 40
1
 40
1
 10
141.482471
 20
190.771531
 30
0.0
 10
133.638457
 20
190.771531
 30
0.0
 10
117.617054
 20
192.158654
 30
0.0
 10
117.617054
 20
192.158654
 30
0.0
  0
SPLINE
  5
186
100
AcDbEntity
  8
compi_laser_schneiden
 62
7
100
AcDbSpline
 70
8
 71
3
 72
8
 73
4
 74
0
 40
0
 40
0
 40
0
 40
0
 40
1
 40
1
 40
1
 40
1
 10
117.616913
 20
192.158512
 30
0.0
 10
117.616913
 20
192.158512
 30
0.0
 10
116.384307
 20
205.482224
 30
0.0
 10
116.384307
 20
212.142668
 30
0.0
  0
SPLINE
  5
187
100
AcDbEntity
  8
compi_laser_schneiden
 62
7
100
AcDbSpline
 70
8
 71
3
 72
8
 73
4
 74
0
 40
0
 40
0
 40
0
 40
0
 40
1
 40
1
 40
1
 40
1
 10
116.384237
 20
212.143515
 30
0.0
 10
116.384237
 20
218.805017
 30
0.0
 10
117.616842
 20
232.127670
 30
0.0
 10
117.616842
 20
232.127670
 30
0.0
  0
LWPOLYLINE
  5
188
100
AcDbEntity
  8
compi_laser_schneiden
 62
7
100
AcDbPolyline
 90
2
 70
0
 10
112.510596
 20
356.055646
 30
0.0
 10
112.511301
 20
364.379790
 30
0.0
  0
LWPOLYLINE
  5
189
100
AcDbEntity
  8
compi_laser_schneiden
 62
7
100
AcDbPolyline
 90
2
 70
0
 10
170.461895
 20
183.492385
 30
0.0
 10
170.461190
 20
178.622288
 30
0.0
  0
LWPOLYLINE
  5
18a
100
AcDbEntity
  8
compi_laser_schneiden
 62
7
100
AcDbPolyline
 90
2
 70
0
 10
170.461225
 20
173.793042
 30
0.0
 10
170.461225
 20
170.474109
 30
0.0
  0
LWPOLYLINE
  5
18b
100
AcDbEntity
  8
compi_laser_schneiden
 62
7
100
AcDbPolyline
 90
2
 70
0
 10
112.512642
 20
170.406517
 30
0.0
 10
112.511936
 20
173.795653
 30
0.0
  0
LWPOLYLINE
  5
18c
100
AcDbEntity
  8
compi_laser_schneiden
 62
7
100
AcDbPolyline
 90
2
 70
0
 10
112.511266
 20
178.616185
 30
0.0
 10
112.510560
 20
183.492279
 30
0.0
  0
LWPOLYLINE
  5
18d
100
AcDbEntity
  8
compi_laser_schneiden
 62
7
100
AcDbPolyline
 90
4
 70
0
 10
112.511266
 20
173.787539
 30
0.0
 10
109.612491
 20
173.787539
 30
0.0
 10
109.612491
 20
178.616361
 30
0.0
 10
112.511266
 20
178.616361
 30
0.0
  0
LWPOLYLINE
  5
18e
100
AcDbEntity
  8
compi_laser_schneiden
 62
7
100
AcDbPolyline
 90
4
 70
0
 10
170.461225
 20
178.622394
 30
0.0
 10
173.359294
 20
178.622394
 30
0.0
 10
173.359294
 20
173.793219
 30
0.0
 10
170.461225
 20
173.793219
 30
0.0
  0
LWPOLYLINE
  5
18f
100
AcDbEntity
  8
compi_laser_schneiden
 62
7
100
AcDbPolyline
 90
2
 70
0
 10
54.723938
 20
230.702236
 30
0.0
 10
49.894763
 20
239.066950
 30
0.0
  0
LWPOLYLINE
  5
190
100
AcDbEntity
  8
compi_laser_schneiden
 62
7
100
AcDbPolyline
 90
4
 70
1
 10
111.544584
 20
239.066950
 30
0.0
 10
83.134332
 20
235.341264
 30
0.0
 10
111.544584
 20
239.066950
 30
0.0
 10
111.544584
 20
239.066950
 30
0.0
  0
LWPOLYLINE
  5
191
100
AcDbEntity
  8
compi_laser_schneiden
 62
7
100
AcDbPolyline
 90
4
 70
1
 10
83.134261
 20
235.341405
 30
0.0
 10
54.724008
 20
230.702377
 30
0.0
 10
83.134261
 20
235.341405
 30
0.0
 10
83.134261
 20
235.341405
 30
0.0
  0
LWPOLYLINE
  5
192
100
AcDbEntity
  8
compi_laser_schneiden
 62
7
100
AcDbPolyline
 90
4
 70
0
 10
111.544584
 20
298.949426
 30
0.0
 10
68.701134
 20
298.703892
 30
0.0
 10
49.894551
 20
298.949426
 30
0.0
 10
30.582790
 20
298.949426
 30
0.0
  0
LWPOLYLINE
  5
193
100
AcDbEntity
  8
compi_laser_schneiden
 62
7
100
AcDbPolyline
 90
3
 70
0
 10
30.413280
 20
298.949426
 30
0.0
 10
30.413280
 20
239.066809
 30
0.0
 10
49.894727
 20
239.066809
 30
0.0
  0
LWPOLYLINE
  5
194
100
AcDbEntity
  8
compi_laser_schneiden
 62
7
100
AcDbPolyline
 90
6
 70
1
 10
37.344129
 20
289.047306
 30
0.0
 10
38.306859
 20
289.047306
 30
0.0
 10
38.306859
 20
250.416729
 30
0.0
 10
37.344129
 20
250.416729
 30
0.0
 10
37.344129
 20
289.047306
 30
0.0
 10
37.344129
 20
289.047306
 30
0.0
  0
LWPOLYLINE
  5
195
100
AcDbEntity
  8
compi_laser_schneiden
 62
7
100
AcDbPolyline
 90
6
 70
1
 10
79.710976
 20
292.007112
 30
0.0
 10
105.719165
 20
292.007112
 30
0.0
 10
105.719165
 20
291.041559
 30
0.0
 10
79.710976
 20
291.041559
 30
0.0
 10
79.710976
 20
292.007112
 30
0.0
 10
79.710976
 20
292.007112
 30
0.0
  0
LWPOLYLINE
  5
196
100
AcDbEntity
  8
compi_laser_schneiden
 62
7
100
AcDbPolyline
 90
6
 70
1
 10
52.684424
 20
240.440138
 30
0.0
 10
55.225482
 20
235.899888
 30
0.0
 10
54.343537
 20
235.377071
 30
0.0
 10
51.802479
 20
239.917674
 30
0.0
 10
52.684424
 20
240.440138
 30
0.0
 10
52.684424
 20
240.440138
 30
0.0
  0
LWPOLYLINE
  5
197
100
AcDbEntity
  8
compi_laser_schneiden
 62
7
100
AcDbPolyline
 90
2
 70
0
 10
112.511266
 20
163.636923
 30
0.0
 10
112.510560
 20
170.471287
 30
0.0
  0
LWPOLYLINE
  5
198
100
AcDbEntity
  8
compi_laser_schneiden
 62
7
100
AcDbPolyline
 90
4
 70
0
 10
170.461225
 20
162.988553
 30
0.0
 10
170.461225
 20
160.087661
 30
0.0
 10
112.510419
 20
160.087661
 30
0.0
 10
112.511125
 20
163.636958
 30
0.0
  0
LWPOLYLINE
  5
199
100
AcDbEntity
  8
compi_laser_schneiden
 62
7
100
AcDbPolyline
 90
2
 70
0
 10
170.461225
 20
170.474039
 30
0.0
 10
170.461225
 20
162.988447
 30
0.0
  0
LWPOLYLINE
  5
19a
100
AcDbEntity
  8
compi_laser_schneiden
 62
7
100
AcDbPolyline
 90
6
 70
1
 10
60.230940
 20
296.991509
 30
0.0
 10
65.204401
 20
296.991509
 30
0.0
 10
65.204401
 20
296.025604
 30
0.0
 10
60.230940
 20
296.025604
 30
0.0
 10
60.230940
 20
296.991509
 30
0.0
 10
60.230940
 20
296.991509
 30
0.0
  0
LWPOLYLINE
  5
19b
100
AcDbEntity
  8
compi_laser_schneiden
 62
7
100
AcDbPolyline
 90
2
 70
0
 10
228.248553
 20
230.702236
 30
0.0
 10
233.077728
 20
239.066950
 30
0.0
  0
LWPOLYLINE
  5
19c
100
AcDbEntity
  8
compi_laser_schneiden
 62
7
100
AcDbPolyline
 90
4
 70
1
 10
171.427236
 20
239.066950
 30
0.0
 10
199.837489
 20
235.341264
 30
0.0
 10
171.427236
 20
239.066950
 30
0.0
 10
171.427236
 20
239.066950
 30
0.0
  0
LWPOLYLINE
  5
19d
100
AcDbEntity
  8
compi_laser_schneiden
 62
7
100
AcDbPolyline
 90
4
 70
1
 10
199.838230
 20
235.341405
 30
0.0
 10
228.248483
 20
230.702377
 30
0.0
 10
199.838230
 20
235.341405
 30
0.0
 10
199.838230
 20
235.341405
 30
0.0
  0
LWPOLYLINE
  5
19e
100
AcDbEntity
  8
compi_laser_schneiden
 62
7
100
AcDbPolyline
 90
4
 70
0
 10
171.427236
 20
298.949426
 30
0.0
 10
214.271039
 20
298.703892
 30
0.0
 10
233.077975
 20
298.949426
 30
0.0
 10
252.389736
 20
298.949426
 30
0.0
  0
LWPOLYLINE
  5
19f
100
AcDbEntity
  8
compi_laser_schneiden
 62
7
100
AcDbPolyline
 90
3
 70
0
 10
252.559211
 20
298.949426
 30
0.0
 10
252.559211
 20
239.066809
 30
0.0
 10
233.077764
 20
239.066809
 30
0.0
  0
LWPOLYLINE
  5
1a0
100
AcDbEntity
  8
compi_laser_schneiden
 62
7
100
AcDbPolyline
 90
6
 70
1
 10
244.665984
 20
289.047306
 30
0.0
 10
245.628715
 20
289.047306
 30
0.0
 10
245.628715
 20
250.416729
 30
0.0
 10
244.665984
 20
250.416729
 30
0.0
 10
244.665984
 20
289.047306
 30
0.0
 10
244.665984
 20
289.047306
 30
0.0
  0
LWPOLYLINE
  5
1a1
100
AcDbEntity
  8
compi_laser_schneiden
 62
7
100
AcDbPolyline
 90
6
 70
1
 10
177.089284
 20
292.007112
 30
0.0
 10
203.183198
 20
292.007112
 30
0.0
 10
203.183198
 20
291.041559
 30
0.0
 10
177.089284
 20
291.041559
 30
0.0
 10
177.089284
 20
292.007112
 30
0.0
 10
177.089284
 20
292.007112
 30
0.0
  0
LWPOLYLINE
  5
1a2
100
AcDbEntity
  8
compi_laser_schneiden
 62
7
100
AcDbPolyline
 90
6
 70
1
 10
231.229243
 20
239.751127
 30
0.0
 10
228.558010
 20
235.132561
 30
0.0
 10
227.629852
 20
235.664550
 30
0.0
 10
230.301790
 20
240.283822
 30
0.0
 10
231.229243
 20
239.751127
 30
0.0
 10
231.229243
 20
239.751127
 30
0.0
  0
LWPOLYLINE
  5
1a3
100
AcDbEntity
  8
compi_laser_schneiden
 62
7
100
AcDbPolyline
 90
6
 70
1
 10
218.301490
 20
296.990451
 30
0.0
 10
223.644662
 20
296.990451
 30
0.0
 10
223.644662
 20
296.024545
 30
0.0
 10
218.301490
 20
296.024545
 30
0.0
 10
218.301490
 20
296.990451
 30
0.0
 10
218.301490
 20
296.990451
 30
0.0
  0
LWPOLYLINE
  5
1a4
100
AcDbEntity
  8
compi_laser_schneiden
 62
7
100
AcDbPolyline
 90
4
 70
0
 10
112.511266
 20
345.550876
 30
0.0
 10
109.612491
 20
345.550876
 30
0.0
 10
109.612491
 20
350.380051
 30
0.0
 10
112.511266
 20
350.380051
 30
0.0
  0
LWPOLYLINE
  5
1a5
100
AcDbEntity
  8
compi_laser_schneiden
 62
7
100
AcDbPolyline
 90
6
 70
1
 10
131.838126
 20
297.997279
 30
0.0
 10
152.109090
 20
297.997279
 30
0.0
 10
152.109090
 20
291.006987
 30
0.0
 10
131.838126
 20
291.006987
 30
0.0
 10
131.838126
 20
297.997279
 30
0.0
 10
131.838126
 20
297.997279
 30
0.0
  0
LWPOLYLINE
  5
1a6
100
AcDbEntity
  8
compi_laser_schneiden
 62
7
100
AcDbPolyline
 90
2
 70
0
 10
170.461895
 20
350.380228
 30
0.0
 10
170.462601
 20
356.105105
 30
0.0
  0
LWPOLYLINE
  5
1a7
100
AcDbEntity
  8
compi_laser_schneiden
 62
7
100
AcDbPolyline
 90
2
 70
0
 10
170.462601
 20
297.983767
 30
0.0
 10
170.462601
 20
345.550912
 30
0.0
  0
LWPOLYLINE
  5
1a8
100
AcDbEntity
  8
compi_laser_schneiden
 62
7
100
AcDbPolyline
 90
2
 70
0
 10
170.462601
 20
356.055646
 30
0.0
 10
170.461895
 20
364.379790
 30
0.0
  0
LWPOLYLINE
  5
1a9
100
AcDbEntity
  8
compi_laser_schneiden
 62
7
100
AcDbPolyline
 90
5
 70
0
 10
170.461895
 20
364.379685
 30
0.0
 10
170.461542
 20
371.496624
 30
0.0
 10
164.113306
 20
371.496624
 30
0.0
 10
112.510737
 20
371.496624
 30
0.0
 10
112.511090
 20
364.247040
 30
0.0
  0
LWPOLYLINE
  5
1aa
100
AcDbEntity
  8
compi_laser_schneiden
 62
7
100
AcDbPolyline
 90
4
 70
0
 10
170.461895
 20
345.550876
 30
0.0
 10
173.360670
 20
345.550876
 30
0.0
 10
173.360670
 20
350.380051
 30
0.0
 10
170.461895
 20
350.380051
 30
0.0
  0
LWPOLYLINE
  5
1ab
100
AcDbEntity
  8
compi_laser_schneiden
 62
7
100
AcDbPolyline
 90
2
 70
0
 10
112.520579
 20
240.032926
 30
0.0
 10
111.544443
 20
240.032926
 30
0.0
  0
LWPOLYLINE
  5
1ac
100
AcDbEntity
  8
compi_laser_schneiden
 62
7
100
AcDbPolyline
 90
2
 70
0
 10
170.461225
 20
240.032926
 30
0.0
 10
171.427130
 20
240.032926
 30
0.0
  0
LWPOLYLINE
  5
1ad
100
AcDbEntity
  8
compi_laser_schneiden
 62
7
100
AcDbPolyline
 90
2
 70
0
 10
112.511266
 20
297.983767
 30
0.0
 10
111.714694
 20
297.983767
 30
0.0
  0
LWPOLYLINE
  5
1ae
100
AcDbEntity
  8
compi_laser_schneiden
 62
7
100
AcDbPolyline
 90
2
 70
0
 10
170.629006
 20
297.983767
 30
0.0
 10
171.598087
 20
297.983767
 30
0.0
  0
LWPOLYLINE
  5
1af
100
AcDbEntity
  8
compi_laser_schneiden
 62
7
100
AcDbPolyline
 90
2
 70
0
 10
112.520579
 20
240.032926
 30
0.0
 10
112.520579
 20
239.032449
 30
0.0
  0
LWPOLYLINE
  5
1b0
100
AcDbEntity
  8
compi_laser_schneiden
 62
7
100
AcDbPolyline
 90
2
 70
0
 10
170.461225
 20
240.032926
 30
0.0
 10
170.461225
 20
238.977062
 30
0.0
  0
LWPOLYLINE
  5
1b1
100
AcDbEntity
  8
compi_laser_schneiden
 62
7
100
AcDbPolyline
 90
2
 70
0
 10
110.510346
 20
238.948417
 30
0.0
 10
112.520474
 20
239.032378
 30
0.0
  0
LWPOLYLINE
  5
1b2
100
AcDbEntity
  8
compi_laser_schneiden
 62
7
100
AcDbPolyline
 90
2
 70
0
 10
110.510346
 20
183.407965
 30
0.0
 10
112.510596
 20
183.492279
 30
0.0
  0
LWPOLYLINE
  5
1b3
100
AcDbEntity
  8
compi_laser_schneiden
 62
7
100
AcDbPolyline
 90
2
 70
0
 10
170.461895
 20
183.492385
 30
0.0
 10
172.461440
 20
183.577405
 30
0.0
  0
SPLINE
  5
1b4
100
AcDbEntity
  8
compi_laser_schneiden
 62
7
100
AcDbSpline
 70
8
 71
3
 72
8
 73
4
 74
0
 40
0
 40
0
 40
0
 40
0
 40
1
 40
1
 40
1
 40
1
 10
108.585237
 20
196.636109
 30
0.0
 10
108.585237
 20
177.306004
 30
0.0
 10
92.915201
 20
161.636320
 30
0.0
 10
73.585449
 20
161.636320
 30
0.0
  0
SPLINE
  5
1b5
100
AcDbEntity
  8
compi_laser_schneiden
 62
7
100
AcDbSpline
 70
8
 71
3
 72
8
 73
4
 74
0
 40
0
 40
0
 40
0
 40
0
 40
1
 40
1
 40
1
 40
1
 10
73.585449
 20
161.636320
 30
0.0
 10
54.255343
 20
161.636320
 30
0.0
 10
38.585307
 20
177.306004
 30
0.0
 10
38.585307
 20
196.636109
 30
0.0
  0
SPLINE
  5
1b6
100
AcDbEntity
  8
compi_laser_schneiden
 62
7
100
AcDbSpline
 70
8
 71
3
 72
8
 73
4
 74
0
 40
0
 40
0
 40
0
 40
0
 40
1
 40
1
 40
1
 40
1
 10
38.585307
 20
196.636109
 30
0.0
 10
38.585307
 20
215.966215
 30
0.0
 10
54.255343
 20
231.636251
 30
0.0
 10
73.585449
 20
231.636251
 30
0.0
  0
SPLINE
  5
1b7
100
AcDbEntity
  8
compi_laser_schneiden
 62
7
100
AcDbSpline
 70
8
 71
3
 72
8
 73
4
 74
0
 40
0
 40
0
 40
0
 40
0
 40
1
 40
1
 40
1
 40
1
 10
73.585449
 20
231.636251
 30
0.0
 10
92.915201
 20
231.636251
 30
0.0
 10
108.585237
 20
215.966215
 30
0.0
 10
108.585237
 20
196.636109
 30
0.0
  0
LWPOLYLINE
  5
1b8
100
AcDbEntity
  8
compi_laser_schneiden
 62
7
100
AcDbPolyline
 90
2
 70
0
 10
172.461440
 20
238.931201
 30
0.0
 10
170.461190
 20
238.977062
 30
0.0
  0
LWPOLYLINE
  5
1b9
100
AcDbEntity
  8
compi_laser_schneiden
 62
7
100
AcDbPolyline
 90
2
 70
1
 10
108.585237
 20
196.636109
 30
0.0
 10
108.585237
 20
196.636109
 30
0.0
  0
LWPOLYLINE
  5
1ba
100
AcDbEntity
  8
compi_laser_schneiden
 62
2
100
AcDbPolyline
 90
6
 70
1
 10
48.902893
 20
191.635484
 30
0.0
 10
47.903120
 20
191.635484
 30
0.0
 10
47.903120
 20
201.635676
 30
0.0
 10
48.902893
 20
201.635676
 30
0.0
 10
48.902893
 20
191.635484
 30
0.0
 10
48.902893
 20
191.635484
 30
0.0
  0
LWPOLYLINE
  5
1bb
100
AcDbEntity
  8
compi_laser_schneiden
 62
2
100
AcDbPolyline
 90
6
 70
1
 10
64.104440
 20
179.698542
 30
0.0
 10
63.104668
 20
179.698542
 30
0.0
 10
63.104668
 20
189.698734
 30
0.0
 10
64.104440
 20
189.698734
 30
0.0
 10
64.104440
 20
179.698542
 30
0.0
 10
64.104440
 20
179.698542
 30
0.0
  0
LWPOLYLINE
  5
1bc
100
AcDbEntity
  8
compi_laser_schneiden
 62
2
100
AcDbPolyline
 90
6
 70
1
 10
52.030374
 20
181.377447
 30
0.0
 10
51.089162
 20
181.714350
 30
0.0
 10
54.459249
 20
191.129989
 30
0.0
 10
55.400812
 20
190.792380
 30
0.0
 10
52.030374
 20
181.377447
 30
0.0
 10
52.030374
 20
181.377447
 30
0.0
  0
LWPOLYLINE
  5
1bd
100
AcDbEntity
  8
compi_laser_schneiden
 62
2
100
AcDbPolyline
 90
6
 70
1
 10
94.101840
 20
180.168442
 30
0.0
 10
93.102068
 20
180.168442
 30
0.0
 10
93.102068
 20
190.168634
 30
0.0
 10
94.101840
 20
190.168634
 30
0.0
 10
94.101840
 20
180.168442
 30
0.0
 10
94.101840
 20
180.168442
 30
0.0
  0
LWPOLYLINE
  5
1be
100
AcDbEntity
  8
compi_laser_schneiden
 62
2
100
AcDbPolyline
 90
6
 70
1
 10
61.617709
 20
209.760854
 30
0.0
 10
60.617937
 20
209.760854
 30
0.0
 10
60.617937
 20
219.760692
 30
0.0
 10
61.617709
 20
219.760692
 30
0.0
 10
61.617709
 20
209.760854
 30
0.0
 10
61.617709
 20
209.760854
 30
0.0
  0
LWPOLYLINE
  5
1bf
100
AcDbEntity
  8
compi_laser_schneiden
 62
2
100
AcDbPolyline
 90
6
 70
1
 10
71.950429
 20
183.833804
 30
0.0
 10
72.452079
 20
184.698462
 30
0.0
 10
81.102896
 20
179.681609
 30
0.0
 10
80.601246
 20
178.816951
 30
0.0
 10
71.950429
 20
183.833804
 30
0.0
 10
71.950429
 20
183.833804
 30
0.0
  0
LWPOLYLINE
  5
1c0
100
AcDbEntity
  8
compi_laser_schneiden
 62
2
100
AcDbPolyline
 90
6
 70
1
 10
51.619740
 20
207.582204
 30
0.0
 10
52.121390
 20
208.447215
 30
0.0
 10
60.772207
 20
203.430362
 30
0.0
 10
60.270557
 20
202.565351
 30
0.0
 10
51.619740
 20
207.582204
 30
0.0
 10
51.619740
 20
207.582204
 30
0.0
  0
LWPOLYLINE
  5
1c1
100
AcDbEntity
  8
compi_laser_schneiden
 62
2
100
AcDbPolyline
 90
6
 70
1
 10
61.950379
 20
197.135642
 30
0.0
 10
71.950570
 20
197.135642
 30
0.0
 10
71.950570
 20
196.135517
 30
0.0
 10
61.950379
 20
196.135517
 30
0.0
 10
61.950379
 20
197.135642
 30
0.0
 10
61.950379
 20
197.135642
 30
0.0
  0
LWPOLYLINE
  5
1c2
100
AcDbEntity
  8
compi_laser_schneiden
 62
2
100
AcDbPolyline
 90
6
 70
1
 10
85.502564
 20
217.096867
 30
0.0
 10
86.209531
 20
217.804187
 30
0.0
 10
93.280609
 20
210.733109
 30
0.0
 10
92.573642
 20
210.026142
 30
0.0
 10
85.502564
 20
217.096867
 30
0.0
 10
85.502564
 20
217.096867
 30
0.0
  0
LWPOLYLINE
  5
1c3
100
AcDbEntity
  8
compi_laser_schneiden
 62
2
100
AcDbPolyline
 90
6
 70
1
 10
66.950298
 20
172.237998
 30
0.0
 10
76.950490
 20
172.237998
 30
0.0
 10
76.950490
 20
171.237873
 30
0.0
 10
66.950298
 20
171.237873
 30
0.0
 10
66.950298
 20
172.237998
 30
0.0
 10
66.950298
 20
172.237998
 30
0.0
  0
LWPOLYLINE
  5
1c4
100
AcDbEntity
  8
compi_laser_schneiden
 62
2
100
AcDbPolyline
 90
6
 70
1
 10
83.763334
 20
184.809446
 30
0.0
 10
84.672443
 20
185.225724
 30
0.0
 10
88.836984
 20
176.133935
 30
0.0
 10
87.927876
 20
175.718010
 30
0.0
 10
83.763334
 20
184.809446
 30
0.0
 10
83.763334
 20
184.809446
 30
0.0
  0
LWPOLYLINE
  5
1c5
100
AcDbEntity
  8
compi_laser_schneiden
 62
2
100
AcDbPolyline
 90
6
 70
1
 10
68.300026
 20
223.602795
 30
0.0
 10
78.300218
 20
223.602795
 30
0.0
 10
78.300218
 20
222.602670
 30
0.0
 10
68.300026
 20
222.602670
 30
0.0
 10
68.300026
 20
223.602795
 30
0.0
 10
68.300026
 20
223.602795
 30
0.0
  0
LWPOLYLINE
  5
1c6
100
AcDbEntity
  8
compi_laser_schneiden
 62
2
100
AcDbPolyline
 90
6
 70
1
 10
67.950423
 20
215.915062
 30
0.0
 10
77.950615
 20
215.915062
 30
0.0
 10
77.950615
 20
214.914937
 30
0.0
 10
67.950423
 20
214.914937
 30
0.0
 10
67.950423
 20
215.915062
 30
0.0
 10
67.950423
 20
215.915062
 30
0.0
  0
LWPOLYLINE
  5
1c7
100
AcDbEntity
  8
compi_laser_schneiden
 62
2
100
AcDbPolyline
 90
6
 70
1
 10
66.950298
 20
207.506251
 30
0.0
 10
76.950490
 20
207.506251
 30
0.0
 10
76.950490
 20
206.506479
 30
0.0
 10
66.950298
 20
206.506479
 30
0.0
 10
66.950298
 20
207.506251
 30
0.0
 10
66.950298
 20
207.506251
 30
0.0
  0
LWPOLYLINE
  5
1c8
100
AcDbEntity
  8
compi_laser_schneiden
 62
2
100
AcDbPolyline
 90
6
 70
1
 10
97.884323
 20
202.635801
 30
0.0
 10
98.884095
 20
202.635801
 30
0.0
 10
98.884095
 20
192.635256
 30
0.0
 10
97.884323
 20
192.635256
 30
0.0
 10
97.884323
 20
202.635801
 30
0.0
 10
97.884323
 20
202.635801
 30
0.0
  0
LWPOLYLINE
  5
1c9
100
AcDbEntity
  8
compi_laser_schneiden
 62
2
100
AcDbPolyline
 90
6
 70
1
 10
87.800170
 20
206.554104
 30
0.0
 10
88.799943
 20
206.554104
 30
0.0
 10
88.799943
 20
196.554265
 30
0.0
 10
87.800170
 20
196.554265
 30
0.0
 10
87.800170
 20
206.554104
 30
0.0
 10
87.800170
 20
206.554104
 30
0.0
  0
LWPOLYLINE
  5
1ca
100
AcDbEntity
  8
compi_laser_schneiden
 62
2
100
AcDbPolyline
 90
6
 70
1
 10
80.983093
 20
201.635676
 30
0.0
 10
81.982865
 20
201.635676
 30
0.0
 10
81.982865
 20
191.635484
 30
0.0
 10
80.983093
 20
191.635484
 30
0.0
 10
80.983093
 20
201.635676
 30
0.0
 10
80.983093
 20
201.635676
 30
0.0
  0
LWPOLYLINE
  5
1cb
100
AcDbEntity
  8
compi_laser_schneiden
 62
2
100
AcDbPolyline
 90
2
 70
0
 10
36.716255
 20
341.287239
 30
0.0
 10
36.716255
 20
366.287189
 30
0.0
  0
LWPOLYLINE
  5
1cc
100
AcDbEntity
  8
compi_laser_schneiden
 62
2
100
AcDbPolyline
 90
2
 70
0
 10
97.428993
 20
336.287355
 30
0.0
 10
40.429276
 20
336.287355
 30
0.0
  0
LWPOLYLINE
  5
1cd
100
AcDbEntity
  8
compi_laser_schneiden
 62
2
100
AcDbPolyline
 90
6
 70
0
 10
40.429029
 20
366.287260
 30
0.0
 10
40.429029
 20
371.287179
 30
0.0
 10
97.429099
 20
371.287179
 30
0.0
 10
97.429099
 20
366.287260
 30
0.0
 10
101.098340
 20
366.287260
 30
0.0
 10
101.098340
 20
341.287310
 30
0.0
  0
LWPOLYLINE
  5
1ce
100
AcDbEntity
  8
compi_laser_schneiden
 62
2
100
AcDbPolyline
 90
2
 70
0
 10
36.716255
 20
366.287084
 30
0.0
 10
40.428888
 20
366.287084
 30
0.0
  0
LWPOLYLINE
  5
1cf
100
AcDbEntity
  8
compi_laser_schneiden
 62
2
100
AcDbPolyline
 90
2
 70
0
 10
36.716255
 20
341.287239
 30
0.0
 10
40.428888
 20
341.287239
 30
0.0
  0
LWPOLYLINE
  5
1d0
100
AcDbEntity
  8
compi_laser_schneiden
 62
2
100
AcDbPolyline
 90
2
 70
0
 10
40.429029
 20
341.287239
 30
0.0
 10
40.429029
 20
336.287320
 30
0.0
  0
LWPOLYLINE
  5
1d1
100
AcDbEntity
  8
compi_laser_schneiden
 62
2
100
AcDbPolyline
 90
2
 70
0
 10
97.428993
 20
336.287179
 30
0.0
 10
97.428993
 20
341.287098
 30
0.0
  0
LWPOLYLINE
  5
1d2
100
AcDbEntity
  8
compi_laser_schneiden
 62
2
100
AcDbPolyline
 90
2
 70
0
 10
97.428993
 20
341.287239
 30
0.0
 10
101.098235
 20
341.287239
 30
0.0
  0
LWPOLYLINE
  5
1d3
100
AcDbEntity
  8
compi_laser_schneiden
 62
2
100
AcDbPolyline
 90
3
 70
0
 10
97.428993
 20
336.287355
 30
0.0
 10
97.428993
 20
341.287275
 30
0.0
 10
101.098235
 20
341.287239
 30
0.0
  0
SPLINE
  5
1d4
100
AcDbEntity
  8
compi_laser_schneiden
 62
2
100
AcDbSpline
 70
8
 71
3
 72
8
 73
4
 74
0
 40
0
 40
0
 40
0
 40
0
 40
1
 40
1
 40
1
 40
1
 10
71.179081
 20
343.287101
 30
0.0
 10
71.179081
 20
342.044618
 30
0.0
 10
70.171900
 20
341.037437
 30
0.0
 10
68.929064
 20
341.037437
 30
0.0
  0
SPLINE
  5
1d5
100
AcDbEntity
  8
compi_laser_schneiden
 62
2
100
AcDbSpline
 70
8
 71
3
 72
8
 73
4
 74
0
 40
0
 40
0
 40
0
 40
0
 40
1
 40
1
 40
1
 40
1
 10
68.929064
 20
341.037437
 30
0.0
 10
67.686581
 20
341.037437
 30
0.0
 10
66.679047
 20
342.044618
 30
0.0
 10
66.679047
 20
343.287101
 30
0.0
  0
SPLINE
  5
1d6
100
AcDbEntity
  8
compi_laser_schneiden
 62
2
100
AcDbSpline
 70
8
 71
3
 72
8
 73
4
 74
0
 40
0
 40
0
 40
0
 40
0
 40
1
 40
1
 40
1
 40
1
 10
66.679047
 20
343.287101
 30
0.0
 10
66.679047
 20
344.529585
 30
0.0
 10
67.686581
 20
345.537118
 30
0.0
 10
68.929064
 20
345.537118
 30
0.0
  0
SPLINE
  5
1d7
100
AcDbEntity
  8
compi_laser_schneiden
 62
2
100
AcDbSpline
 70
8
 71
3
 72
8
 73
4
 74
0
 40
0
 40
0
 40
0
 40
0
 40
1
 40
1
 40
1
 40
1
 10
68.929064
 20
345.537118
 30
0.0
 10
70.171900
 20
345.537118
 30
0.0
 10
71.179081
 20
344.529585
 30
0.0
 10
71.179081
 20
343.287101
 30
0.0
  0
LWPOLYLINE
  5
1d8
100
AcDbEntity
  8
compi_laser_schneiden
 62
2
100
AcDbPolyline
 90
2
 70
0
 10
68.929099
 20
371.287285
 30
0.0
 10
68.929099
 20
364.246899
 30
0.0
  0
LWPOLYLINE
  5
1d9
100
AcDbEntity
  8
compi_laser_schneiden
 62
2
100
AcDbPolyline
 90
2
 70
1
 10
71.179081
 20
343.287101
 30
0.0
 10
71.179081
 20
343.287101
 30
0.0
  0
LWPOLYLINE
  5
1da
100
AcDbEntity
  8
compi_laser_schneiden
 62
2
100
AcDbPolyline
 90
6
 70
1
 10
56.429054
 20
351.287184
 30
0.0
 10
53.429032
 20
351.287184
 30
0.0
 10
53.429032
 20
356.287104
 30
0.0
 10
56.429054
 20
356.287104
 30
0.0
 10
56.429054
 20
351.287184
 30
0.0
 10
56.429054
 20
351.287184
 30
0.0
  0
LWPOLYLINE
  5
1db
100
AcDbEntity
  8
compi_laser_schneiden
 62
2
100
AcDbPolyline
 90
6
 70
1
 10
84.429026
 20
351.287184
 30
0.0
 10
81.429004
 20
351.287184
 30
0.0
 10
81.429004
 20
356.287104
 30
0.0
 10
84.429026
 20
356.287104
 30
0.0
 10
84.429026
 20
351.287184
 30
0.0
 10
84.429026
 20
351.287184
 30
0.0
  0
LWPOLYLINE
  5
1dc
100
AcDbEntity
  8
compi_laser_schneiden
 62
2
100
AcDbPolyline
 90
6
 70
1
 10
93.928979
 20
329.473170
 30
0.0
 10
43.929079
 20
329.473170
 30
0.0
 10
43.929079
 20
334.473090
 30
0.0
 10
93.928979
 20
334.473090
 30
0.0
 10
93.928979
 20
329.473170
 30
0.0
 10
93.928979
 20
329.473170
 30
0.0
  0
LWPOLYLINE
  5
1dd
100
AcDbEntity
  8
compi_laser_schneiden
 62
7
100
AcDbPolyline
 90
4
 70
0
 10
92.167630
 20
312.950470
 30
0.0
 10
92.167630
 20
304.450642
 30
0.0
 10
45.167399
 20
304.450642
 30
0.0
 10
45.167399
 20
311.485384
 30
0.0
  0
LWPOLYLINE
  5
1de
100
AcDbEntity
  8
compi_laser_schneiden
 62
7
100
AcDbPolyline
 90
4
 70
0
 10
45.167576
 20
317.404960
 30
0.0
 10
45.167576
 20
324.450638
 30
0.0
 10
92.167806
 20
324.450638
 30
0.0
 10
92.167806
 20
315.950457
 30
0.0
  0
LWPOLYLINE
  5
1df
100
AcDbEntity
  8
compi_laser_schneiden
 62
7
100
AcDbPolyline
 90
4
 70
0
 10
92.167630
 20
315.950457
 30
0.0
 10
95.167652
 20
315.950457
 30
0.0
 10
95.167652
 20
312.950435
 30
0.0
 10
92.167630
 20
312.950435
 30
0.0
  0
LWPOLYLINE
  5
1e0
100
AcDbEntity
  8
compi_laser_schneiden
 62
7
100
AcDbPolyline
 90
6
 70
1
 10
46.211551
 20
315.950845
 30
0.0
 10
47.211676
 20
315.950845
 30
0.0
 10
47.211676
 20
312.950823
 30
0.0
 10
46.211551
 20
312.950823
 30
0.0
 10
46.211551
 20
315.950845
 30
0.0
 10
46.211551
 20
315.950845
 30
0.0
  0
LWPOLYLINE
  5
1e1
100
AcDbEntity
  8
compi_laser_schneiden
 62
7
100
AcDbPolyline
 90
2
 70
0
 10
45.211673
 20
311.495932
 30
0.0
 10
42.425081
 20
311.485349
 30
0.0
  0
SPLINE
  5
1e2
100
AcDbEntity
  8
compi_laser_schneiden
 62
7
100
AcDbSpline
 70
8
 71
3
 72
8
 73
4
 74
0
 40
0
 40
0
 40
0
 40
0
 40
1
 40
1
 40
1
 40
1
 10
42.424940
 20
311.490429
 30
0.0
 10
40.748540
 20
311.490429
 30
0.0
 10
39.389640
 20
312.815462
 30
0.0
 10
39.389640
 20
314.450940
 30
0.0
  0
SPLINE
  5
1e3
100
AcDbEntity
  8
compi_laser_schneiden
 62
7
100
AcDbSpline
 70
8
 71
3
 72
8
 73
4
 74
0
 40
0
 40
0
 40
0
 40
0
 40
1
 40
1
 40
1
 40
1
 10
39.389640
 20
314.450940
 30
0.0
 10
39.389640
 20
316.086065
 30
0.0
 10
40.748540
 20
317.411098
 30
0.0
 10
42.424940
 20
317.411098
 30
0.0
  0
SPLINE
  5
1e4
100
AcDbEntity
  8
compi_laser_schneiden
 62
7
100
AcDbSpline
 70
8
 71
3
 72
8
 73
4
 74
0
 40
0
 40
0
 40
0
 40
0
 40
1
 40
1
 40
1
 40
1
 10
42.912056
 20
313.507189
 30
0.0
 10
42.391003
 20
313.507189
 30
0.0
 10
41.969434
 20
313.929464
 30
0.0
 10
41.969434
 20
314.449811
 30
0.0
  0
SPLINE
  5
1e5
100
AcDbEntity
  8
compi_laser_schneiden
 62
7
100
AcDbSpline
 70
8
 71
3
 72
8
 73
4
 74
0
 40
0
 40
0
 40
0
 40
0
 40
1
 40
1
 40
1
 40
1
 10
41.969434
 20
314.449811
 30
0.0
 10
41.969434
 20
314.970864
 30
0.0
 10
42.391003
 20
315.393492
 30
0.0
 10
42.912056
 20
315.393492
 30
0.0
  0
SPLINE
  5
1e6
100
AcDbEntity
  8
compi_laser_schneiden
 62
7
100
AcDbSpline
 70
8
 71
3
 72
8
 73
4
 74
0
 40
0
 40
0
 40
0
 40
0
 40
1
 40
1
 40
1
 40
1
 10
42.912056
 20
315.393492
 30
0.0
 10
43.433109
 20
315.393492
 30
0.0
 10
43.854678
 20
314.970864
 30
0.0
 10
43.854678
 20
314.449811
 30
0.0
  0
SPLINE
  5
1e7
100
AcDbEntity
  8
compi_laser_schneiden
 62
7
100
AcDbSpline
 70
8
 71
3
 72
8
 73
4
 74
0
 40
0
 40
0
 40
0
 40
0
 40
1
 40
1
 40
1
 40
1
 10
43.854678
 20
314.449811
 30
0.0
 10
43.854678
 20
313.929464
 30
0.0
 10
43.433109
 20
313.507189
 30
0.0
 10
42.912056
 20
313.507189
 30
0.0
  0
LWPOLYLINE
  5
1e8
100
AcDbEntity
  8
compi_laser_schneiden
 62
7
100
AcDbPolyline
 90
2
 70
0
 10
42.424940
 20
317.394271
 30
0.0
 10
45.211532
 20
317.404854
 30
0.0
  0
SPLINE
  5
1e9
100
AcDbEntity
  8
compi_laser_schneiden
 62
7
100
AcDbSpline
 70
8
 71
3
 72
8
 73
4
 74
0
 40
0
 40
0
 40
0
 40
0
 40
1
 40
1
 40
1
 40
1
 10
161.320365
 20
363.436604
 30
0.0
 10
160.799312
 20
363.436604
 30
0.0
 10
160.377742
 20
363.858879
 30
0.0
 10
160.377742
 20
364.379226
 30
0.0
  0
SPLINE
  5
1ea
100
AcDbEntity
  8
compi_laser_schneiden
 62
7
100
AcDbSpline
 70
8
 71
3
 72
8
 73
4
 74
0
 40
0
 40
0
 40
0
 40
0
 40
1
 40
1
 40
1
 40
1
 10
160.377742
 20
364.379226
 30
0.0
 10
160.377742
 20
364.900279
 30
0.0
 10
160.799312
 20
365.322907
 30
0.0
 10
161.320365
 20
365.322907
 30
0.0
  0
SPLINE
  5
1eb
100
AcDbEntity
  8
compi_laser_schneiden
 62
7
100
AcDbSpline
 70
8
 71
3
 72
8
 73
4
 74
0
 40
0
 40
0
 40
0
 40
0
 40
1
 40
1
 40
1
 40
1
 10
161.320365
 20
365.322907
 30
0.0
 10
161.841417
 20
365.322907
 30
0.0
 10
162.262987
 20
364.900279
 30
0.0
 10
162.262987
 20
364.379226
 30
0.0
  0
SPLINE
  5
1ec
100
AcDbEntity
  8
compi_laser_schneiden
 62
7
100
AcDbSpline
 70
8
 71
3
 72
8
 73
4
 74
0
 40
0
 40
0
 40
0
 40
0
 40
1
 40
1
 40
1
 40
1
 10
162.262987
 20
364.379226
 30
0.0
 10
162.262987
 20
363.858879
 30
0.0
 10
161.841417
 20
363.436604
 30
0.0
 10
161.320365
 20
363.436604
 30
0.0
  0
LWPOLYLINE
  5
1ed
100
AcDbEntity
  8
compi_laser_schneiden
 62
7
100
AcDbPolyline
 90
2
 70
1
 10
42.912056
 20
313.507189
 30
0.0
 10
42.912056
 20
313.507189
 30
0.0
  0
SPLINE
  5
1ee
100
AcDbEntity
  8
compi_laser_schneiden
 62
7
100
AcDbSpline
 70
8
 71
3
 72
8
 73
4
 74
0
 40
0
 40
0
 40
0
 40
0
 40
1
 40
1
 40
1
 40
1
 10
151.166432
 20
363.436604
 30
0.0
 10
150.645380
 20
363.436604
 30
0.0
 10
150.223810
 20
363.858879
 30
0.0
 10
150.223810
 20
364.379226
 30
0.0
  0
SPLINE
  5
1ef
100
AcDbEntity
  8
compi_laser_schneiden
 62
7
100
AcDbSpline
 70
8
 71
3
 72
8
 73
4
 74
0
 40
0
 40
0
 40
0
 40
0
 40
1
 40
1
 40
1
 40
1
 10
150.223810
 20
364.379226
 30
0.0
 10
150.223810
 20
364.900279
 30
0.0
 10
150.645380
 20
365.322907
 30
0.0
 10
151.166432
 20
365.322907
 30
0.0
  0
SPLINE
  5
1f0
100
AcDbEntity
  8
compi_laser_schneiden
 62
7
100
AcDbSpline
 70
8
 71
3
 72
8
 73
4
 74
0
 40
0
 40
0
 40
0
 40
0
 40
1
 40
1
 40
1
 40
1
 10
151.166432
 20
365.322907
 30
0.0
 10
151.687485
 20
365.322907
 30
0.0
 10
152.109055
 20
364.900279
 30
0.0
 10
152.109055
 20
364.379226
 30
0.0
  0
SPLINE
  5
1f1
100
AcDbEntity
  8
compi_laser_schneiden
 62
7
100
AcDbSpline
 70
8
 71
3
 72
8
 73
4
 74
0
 40
0
 40
0
 40
0
 40
0
 40
1
 40
1
 40
1
 40
1
 10
152.109055
 20
364.379226
 30
0.0
 10
152.109055
 20
363.858879
 30
0.0
 10
151.687485
 20
363.436604
 30
0.0
 10
151.166432
 20
363.436604
 30
0.0
  0
LWPOLYLINE
  5
1f2
100
AcDbEntity
  8
compi_laser_schneiden
 62
7
100
AcDbPolyline
 90
2
 70
1
 10
161.320365
 20
363.436604
 30
0.0
 10
161.320365
 20
363.436604
 30
0.0
  0
LWPOLYLINE
  5
1f3
100
AcDbEntity
  8
compi_laser_schneiden
 62
7
100
AcDbPolyline
 90
2
 70
1
 10
151.166432
 20
363.436604
 30
0.0
 10
151.166432
 20
363.436604
 30
0.0
  0
LWPOLYLINE
  5
1f4
100
AcDbEntity
  8
compi_laser_schneiden
 62
7
100
AcDbPolyline
 90
6
 70
1
 10
58.167649
 20
309.450915
 30
0.0
 10
58.167649
 20
319.450754
 30
0.0
 10
77.167554
 20
319.450754
 30
0.0
 10
77.167554
 20
309.450915
 30
0.0
 10
58.167649
 20
309.450915
 30
0.0
 10
58.167649
 20
309.450915
 30
0.0
  0
LWPOLYLINE
  5
1f5
100
AcDbEntity
  8
compi_laser_schneiden
 62
7
100
AcDbPolyline
 90
2
 70
0
 10
317.137194
 20
105.635282
 30
0.0
 10
317.137899
 20
99.910404
 30
0.0
  0
LWPOLYLINE
  5
1f6
100
AcDbEntity
  8
compi_laser_schneiden
 62
7
100
AcDbPolyline
 90
2
 70
0
 10
317.137899
 20
158.031743
 30
0.0
 10
317.137899
 20
110.464598
 30
0.0
  0
LWPOLYLINE
  5
1f7
100
AcDbEntity
  8
compi_laser_schneiden
 62
7
100
AcDbPolyline
 90
2
 70
0
 10
257.187020
 20
246.320590
 30
0.0
 10
257.187020
 20
272.438140
 30
0.0
  0
LWPOLYLINE
  5
1f8
100
AcDbEntity
  8
compi_laser_schneiden
 62
7
100
AcDbPolyline
 90
2
 70
0
 10
257.187020
 20
217.084132
 30
0.0
 10
257.187020
 20
246.292015
 30
0.0
  0
LWPOLYLINE
  5
1f9
100
AcDbEntity
  8
compi_laser_schneiden
 62
7
100
AcDbPolyline
 90
2
 70
0
 10
319.137409
 20
246.191403
 30
0.0
 10
319.138114
 20
217.067128
 30
0.0
  0
SPLINE
  5
1fa
100
AcDbEntity
  8
compi_laser_schneiden
 62
7
100
AcDbSpline
 70
8
 71
3
 72
8
 73
4
 74
0
 40
0
 40
0
 40
0
 40
0
 40
1
 40
1
 40
1
 40
1
 10
312.031547
 20
223.887487
 30
0.0
 10
312.031547
 20
223.887487
 30
0.0
 10
296.010144
 20
222.500365
 30
0.0
 10
288.166130
 20
222.500365
 30
0.0
  0
SPLINE
  5
1fb
100
AcDbEntity
  8
compi_laser_schneiden
 62
7
100
AcDbSpline
 70
8
 71
3
 72
8
 73
4
 74
0
 40
0
 40
0
 40
0
 40
0
 40
1
 40
1
 40
1
 40
1
 10
288.166024
 20
222.500506
 30
0.0
 10
280.321658
 20
222.500506
 30
0.0
 10
264.967005
 20
223.887628
 30
0.0
 10
264.967005
 20
223.887628
 30
0.0
  0
SPLINE
  5
1fc
100
AcDbEntity
  8
compi_laser_schneiden
 62
7
100
AcDbSpline
 70
8
 71
3
 72
8
 73
4
 74
0
 40
0
 40
0
 40
0
 40
0
 40
1
 40
1
 40
1
 40
1
 10
264.966723
 20
223.887487
 30
0.0
 10
264.966723
 20
223.887487
 30
0.0
 10
263.734470
 20
236.460840
 30
0.0
 10
263.734470
 20
243.871642
 30
0.0
  0
SPLINE
  5
1fd
100
AcDbEntity
  8
compi_laser_schneiden
 62
7
100
AcDbSpline
 70
8
 71
3
 72
8
 73
4
 74
0
 40
0
 40
0
 40
0
 40
0
 40
1
 40
1
 40
1
 40
1
 10
263.734435
 20
243.871819
 30
0.0
 10
263.734435
 20
251.283680
 30
0.0
 10
264.966687
 20
263.855974
 30
0.0
 10
264.966687
 20
263.855974
 30
0.0
  0
LWPOLYLINE
  5
1fe
100
AcDbEntity
  8
compi_laser_schneiden
 62
7
100
AcDbPolyline
 90
2
 70
0
 10
319.138114
 20
272.607368
 30
0.0
 10
319.137409
 20
246.191368
 30
0.0
  0
SPLINE
  5
1ff
100
AcDbEntity
  8
compi_laser_schneiden
 62
7
100
AcDbSpline
 70
8
 71
3
 72
8
 73
4
 74
0
 40
0
 40
0
 40
0
 40
0
 40
1
 40
1
 40
1
 40
1
 10
264.966723
 20
263.856821
 30
0.0
 10
264.966723
 20
263.856821
 30
0.0
 10
280.321375
 20
265.243943
 30
0.0
 10
288.165389
 20
265.243943
 30
0.0
  0
SPLINE
  5
200
100
AcDbEntity
  8
compi_laser_schneiden
 62
7
100
AcDbSpline
 70
8
 71
3
 72
8
 73
4
 74
0
 40
0
 40
0
 40
0
 40
0
 40
1
 40
1
 40
1
 40
1
 10
288.166024
 20
265.243802
 30
0.0
 10
296.010038
 20
265.243802
 30
0.0
 10
312.031441
 20
263.856680
 30
0.0
 10
312.031441
 20
263.856680
 30
0.0
  0
SPLINE
  5
201
100
AcDbEntity
  8
compi_laser_schneiden
 62
7
100
AcDbSpline
 70
8
 71
3
 72
8
 73
4
 74
0
 40
0
 40
0
 40
0
 40
0
 40
1
 40
1
 40
1
 40
1
 10
312.031547
 20
263.856821
 30
0.0
 10
312.031547
 20
263.856821
 30
0.0
 10
313.264152
 20
250.533110
 30
0.0
 10
313.264152
 20
243.872665
 30
0.0
  0
SPLINE
  5
202
100
AcDbEntity
  8
compi_laser_schneiden
 62
7
100
AcDbSpline
 70
8
 71
3
 72
8
 73
4
 74
0
 40
0
 40
0
 40
0
 40
0
 40
1
 40
1
 40
1
 40
1
 10
313.264223
 20
243.871819
 30
0.0
 10
313.264223
 20
237.210316
 30
0.0
 10
312.031617
 20
223.887663
 30
0.0
 10
312.031617
 20
223.887663
 30
0.0
  0
LWPOLYLINE
  5
203
100
AcDbEntity
  8
compi_laser_schneiden
 62
7
100
AcDbPolyline
 90
2
 70
0
 10
317.137899
 20
99.959829
 30
0.0
 10
317.137194
 20
91.635684
 30
0.0
  0
LWPOLYLINE
  5
204
100
AcDbEntity
  8
compi_laser_schneiden
 62
7
100
AcDbPolyline
 90
2
 70
0
 10
259.186565
 20
272.522948
 30
0.0
 10
259.187270
 20
277.393045
 30
0.0
  0
LWPOLYLINE
  5
205
100
AcDbEntity
  8
compi_laser_schneiden
 62
7
100
AcDbPolyline
 90
2
 70
0
 10
259.187235
 20
282.222432
 30
0.0
 10
259.187235
 20
285.541365
 30
0.0
  0
LWPOLYLINE
  5
206
100
AcDbEntity
  8
compi_laser_schneiden
 62
7
100
AcDbPolyline
 90
2
 70
0
 10
317.135818
 20
285.608958
 30
0.0
 10
317.136524
 20
282.219822
 30
0.0
  0
LWPOLYLINE
  5
207
100
AcDbEntity
  8
compi_laser_schneiden
 62
7
100
AcDbPolyline
 90
2
 70
0
 10
317.137194
 20
277.399149
 30
0.0
 10
317.137899
 20
272.523054
 30
0.0
  0
LWPOLYLINE
  5
208
100
AcDbEntity
  8
compi_laser_schneiden
 62
7
100
AcDbPolyline
 90
4
 70
0
 10
317.137194
 20
282.227971
 30
0.0
 10
320.035616
 20
282.227971
 30
0.0
 10
320.035616
 20
277.399149
 30
0.0
 10
317.137194
 20
277.399149
 30
0.0
  0
LWPOLYLINE
  5
209
100
AcDbEntity
  8
compi_laser_schneiden
 62
7
100
AcDbPolyline
 90
4
 70
0
 10
259.187235
 20
277.392940
 30
0.0
 10
256.289518
 20
277.392940
 30
0.0
 10
256.289518
 20
282.222467
 30
0.0
 10
259.187235
 20
282.222467
 30
0.0
  0
LWPOLYLINE
  5
20a
100
AcDbEntity
  8
compi_laser_schneiden
 62
7
100
AcDbPolyline
 90
2
 70
0
 10
374.924381
 20
225.313415
 30
0.0
 10
379.753556
 20
216.948701
 30
0.0
  0
LWPOLYLINE
  5
20b
100
AcDbEntity
  8
compi_laser_schneiden
 62
7
100
AcDbPolyline
 90
4
 70
1
 10
318.103875
 20
216.948736
 30
0.0
 10
346.514128
 20
220.674422
 30
0.0
 10
318.103875
 20
216.948736
 30
0.0
 10
318.103875
 20
216.948736
 30
0.0
  0
LWPOLYLINE
  5
20c
100
AcDbEntity
  8
compi_laser_schneiden
 62
7
100
AcDbPolyline
 90
4
 70
1
 10
346.514022
 20
220.674246
 30
0.0
 10
374.924275
 20
225.313274
 30
0.0
 10
346.514022
 20
220.674246
 30
0.0
 10
346.514022
 20
220.674246
 30
0.0
  0
LWPOLYLINE
  5
20d
100
AcDbEntity
  8
compi_laser_schneiden
 62
7
100
AcDbPolyline
 90
4
 70
0
 10
318.103875
 20
157.066084
 30
0.0
 10
360.947678
 20
157.311617
 30
0.0
 10
379.753556
 20
157.066084
 30
0.0
 10
399.065670
 20
157.066084
 30
0.0
  0
LWPOLYLINE
  5
20e
100
AcDbEntity
  8
compi_laser_schneiden
 62
7
100
AcDbPolyline
 90
3
 70
0
 10
399.235039
 20
157.066084
 30
0.0
 10
399.235039
 20
216.948701
 30
0.0
 10
379.753591
 20
216.948701
 30
0.0
  0
LWPOLYLINE
  5
20f
100
AcDbEntity
  8
compi_laser_schneiden
 62
7
100
AcDbPolyline
 90
6
 70
1
 10
392.304190
 20
166.968204
 30
0.0
 10
391.341459
 20
166.968204
 30
0.0
 10
391.341459
 20
205.599134
 30
0.0
 10
392.304190
 20
205.599134
 30
0.0
 10
392.304190
 20
166.968204
 30
0.0
 10
392.304190
 20
166.968204
 30
0.0
  0
LWPOLYLINE
  5
210
100
AcDbEntity
  8
compi_laser_schneiden
 62
7
100
AcDbPolyline
 90
6
 70
1
 10
349.937343
 20
164.008398
 30
0.0
 10
323.929154
 20
164.008398
 30
0.0
 10
323.929154
 20
164.973951
 30
0.0
 10
349.937343
 20
164.973951
 30
0.0
 10
349.937343
 20
164.008398
 30
0.0
 10
349.937343
 20
164.008398
 30
0.0
  0
LWPOLYLINE
  5
211
100
AcDbEntity
  8
compi_laser_schneiden
 62
7
100
AcDbPolyline
 90
6
 70
1
 10
376.963860
 20
215.575513
 30
0.0
 10
374.422802
 20
220.115763
 30
0.0
 10
375.304746
 20
220.638580
 30
0.0
 10
377.845804
 20
216.097977
 30
0.0
 10
376.963860
 20
215.575513
 30
0.0
 10
376.963860
 20
215.575513
 30
0.0
  0
LWPOLYLINE
  5
212
100
AcDbEntity
  8
compi_laser_schneiden
 62
7
100
AcDbPolyline
 90
2
 70
0
 10
317.137194
 20
292.378587
 30
0.0
 10
317.137899
 20
285.544223
 30
0.0
  0
LWPOLYLINE
  5
213
100
AcDbEntity
  8
compi_laser_schneiden
 62
7
100
AcDbPolyline
 90
4
 70
0
 10
259.187235
 20
293.026957
 30
0.0
 10
259.187235
 20
295.927849
 30
0.0
 10
317.138040
 20
295.927849
 30
0.0
 10
317.137335
 20
292.378552
 30
0.0
  0
LWPOLYLINE
  5
214
100
AcDbEntity
  8
compi_laser_schneiden
 62
7
100
AcDbPolyline
 90
2
 70
0
 10
259.187235
 20
285.541436
 30
0.0
 10
259.187235
 20
293.027028
 30
0.0
  0
LWPOLYLINE
  5
215
100
AcDbEntity
  8
compi_laser_schneiden
 62
7
100
AcDbPolyline
 90
6
 70
1
 10
369.417379
 20
159.024001
 30
0.0
 10
364.443565
 20
159.024001
 30
0.0
 10
364.443565
 20
159.989906
 30
0.0
 10
369.417379
 20
159.989906
 30
0.0
 10
369.417379
 20
159.024001
 30
0.0
 10
369.417379
 20
159.024001
 30
0.0
  0
LWPOLYLINE
  5
216
100
AcDbEntity
  8
compi_laser_schneiden
 62
7
100
AcDbPolyline
 90
2
 70
0
 10
201.400083
 20
225.313415
 30
0.0
 10
196.570908
 20
216.948701
 30
0.0
  0
LWPOLYLINE
  5
217
100
AcDbEntity
  8
compi_laser_schneiden
 62
7
100
AcDbPolyline
 90
4
 70
1
 10
258.221224
 20
216.948736
 30
0.0
 10
229.810971
 20
220.674422
 30
0.0
 10
258.221224
 20
216.948736
 30
0.0
 10
258.221224
 20
216.948736
 30
0.0
  0
LWPOLYLINE
  5
218
100
AcDbEntity
  8
compi_laser_schneiden
 62
7
100
AcDbPolyline
 90
4
 70
1
 10
229.810406
 20
220.674246
 30
0.0
 10
201.400154
 20
225.313274
 30
0.0
 10
229.810406
 20
220.674246
 30
0.0
 10
229.810406
 20
220.674246
 30
0.0
  0
LWPOLYLINE
  5
219
100
AcDbEntity
  8
compi_laser_schneiden
 62
7
100
AcDbPolyline
 90
4
 70
0
 10
258.221224
 20
157.066084
 30
0.0
 10
215.377421
 20
157.311617
 30
0.0
 10
196.570837
 20
157.066084
 30
0.0
 10
177.258724
 20
157.066084
 30
0.0
  0
LWPOLYLINE
  5
21a
100
AcDbEntity
  8
compi_laser_schneiden
 62
7
100
AcDbPolyline
 90
3
 70
0
 10
177.089425
 20
157.066084
 30
0.0
 10
177.089425
 20
216.948701
 30
0.0
 10
196.570873
 20
216.948701
 30
0.0
  0
LWPOLYLINE
  5
21b
100
AcDbEntity
  8
compi_laser_schneiden
 62
7
100
AcDbPolyline
 90
6
 70
1
 10
184.982687
 20
166.968204
 30
0.0
 10
184.019957
 20
166.968204
 30
0.0
 10
184.019957
 20
205.599134
 30
0.0
 10
184.982687
 20
205.599134
 30
0.0
 10
184.982687
 20
166.968204
 30
0.0
 10
184.982687
 20
166.968204
 30
0.0
  0
LWPOLYLINE
  5
21c
100
AcDbEntity
  8
compi_laser_schneiden
 62
7
100
AcDbPolyline
 90
6
 70
1
 10
252.559034
 20
164.008398
 30
0.0
 10
226.465120
 20
164.008398
 30
0.0
 10
226.465120
 20
164.973951
 30
0.0
 10
252.559034
 20
164.973951
 30
0.0
 10
252.559034
 20
164.008398
 30
0.0
 10
252.559034
 20
164.008398
 30
0.0
  0
LWPOLYLINE
  5
21d
100
AcDbEntity
  8
compi_laser_schneiden
 62
7
100
AcDbPolyline
 90
6
 70
1
 10
198.419358
 20
216.264206
 30
0.0
 10
201.090591
 20
220.883125
 30
0.0
 10
202.018749
 20
220.351137
 30
0.0
 10
199.346810
 20
215.731864
 30
0.0
 10
198.419358
 20
216.264206
 30
0.0
 10
198.419358
 20
216.264206
 30
0.0
  0
LWPOLYLINE
  5
21e
100
AcDbEntity
  8
compi_laser_schneiden
 62
7
100
AcDbPolyline
 90
6
 70
1
 10
211.347182
 20
159.025059
 30
0.0
 10
206.004009
 20
159.025059
 30
0.0
 10
206.004009
 20
159.990965
 30
0.0
 10
211.347182
 20
159.990965
 30
0.0
 10
211.347182
 20
159.025059
 30
0.0
 10
211.347182
 20
159.025059
 30
0.0
  0
LWPOLYLINE
  5
21f
100
AcDbEntity
  8
compi_laser_schneiden
 62
7
100
AcDbPolyline
 90
4
 70
0
 10
317.137194
 20
110.464634
 30
0.0
 10
320.035616
 20
110.464634
 30
0.0
 10
320.035616
 20
105.635459
 30
0.0
 10
317.137194
 20
105.635459
 30
0.0
  0
LWPOLYLINE
  5
220
100
AcDbEntity
  8
compi_laser_schneiden
 62
7
100
AcDbPolyline
 90
6
 70
1
 10
297.810193
 20
158.018231
 30
0.0
 10
277.539229
 20
158.018231
 30
0.0
 10
277.539229
 20
165.008523
 30
0.0
 10
297.810193
 20
165.008523
 30
0.0
 10
297.810193
 20
158.018231
 30
0.0
 10
297.810193
 20
158.018231
 30
0.0
  0
LWPOLYLINE
  5
221
100
AcDbEntity
  8
compi_laser_schneiden
 62
7
100
AcDbPolyline
 90
2
 70
0
 10
259.186565
 20
105.635282
 30
0.0
 10
259.185859
 20
99.910404
 30
0.0
  0
LWPOLYLINE
  5
222
100
AcDbEntity
  8
compi_laser_schneiden
 62
7
100
AcDbPolyline
 90
2
 70
0
 10
259.185859
 20
158.031743
 30
0.0
 10
259.185859
 20
110.464598
 30
0.0
  0
LWPOLYLINE
  5
223
100
AcDbEntity
  8
compi_laser_schneiden
 62
7
100
AcDbPolyline
 90
2
 70
0
 10
259.185859
 20
99.959829
 30
0.0
 10
259.186565
 20
91.635684
 30
0.0
  0
LWPOLYLINE
  5
224
100
AcDbEntity
  8
compi_laser_schneiden
 62
7
100
AcDbPolyline
 90
5
 70
0
 10
259.186565
 20
91.635790
 30
0.0
 10
259.186917
 20
84.518851
 30
0.0
 10
265.535154
 20
84.518851
 30
0.0
 10
317.137723
 20
84.518851
 30
0.0
 10
317.137370
 20
91.768434
 30
0.0
  0
LWPOLYLINE
  5
225
100
AcDbEntity
  8
compi_laser_schneiden
 62
7
100
AcDbPolyline
 90
4
 70
0
 10
259.186565
 20
110.464634
 30
0.0
 10
256.288142
 20
110.464634
 30
0.0
 10
256.288142
 20
105.635459
 30
0.0
 10
259.186565
 20
105.635459
 30
0.0
  0
LWPOLYLINE
  5
226
100
AcDbEntity
  8
compi_laser_schneiden
 62
7
100
AcDbPolyline
 90
2
 70
0
 10
317.127880
 20
215.982725
 30
0.0
 10
318.104017
 20
215.982725
 30
0.0
  0
LWPOLYLINE
  5
227
100
AcDbEntity
  8
compi_laser_schneiden
 62
7
100
AcDbPolyline
 90
2
 70
0
 10
259.187235
 20
215.982725
 30
0.0
 10
258.221329
 20
215.982725
 30
0.0
  0
LWPOLYLINE
  5
228
100
AcDbEntity
  8
compi_laser_schneiden
 62
7
100
AcDbPolyline
 90
2
 70
0
 10
317.137194
 20
158.031743
 30
0.0
 10
317.933766
 20
158.031743
 30
0.0
  0
LWPOLYLINE
  5
229
100
AcDbEntity
  8
compi_laser_schneiden
 62
7
100
AcDbPolyline
 90
2
 70
0
 10
259.019454
 20
158.031743
 30
0.0
 10
258.050373
 20
158.031743
 30
0.0
  0
LWPOLYLINE
  5
22a
100
AcDbEntity
  8
compi_laser_schneiden
 62
7
100
AcDbPolyline
 90
2
 70
0
 10
317.127880
 20
215.982725
 30
0.0
 10
317.127880
 20
216.982850
 30
0.0
  0
LWPOLYLINE
  5
22b
100
AcDbEntity
  8
compi_laser_schneiden
 62
7
100
AcDbPolyline
 90
2
 70
0
 10
259.187235
 20
215.982725
 30
0.0
 10
259.187235
 20
217.038589
 30
0.0
  0
LWPOLYLINE
  5
22c
100
AcDbEntity
  8
compi_laser_schneiden
 62
7
100
AcDbPolyline
 90
2
 70
0
 10
319.138114
 20
217.067234
 30
0.0
 10
317.127986
 20
216.982920
 30
0.0
  0
LWPOLYLINE
  5
22d
100
AcDbEntity
  8
compi_laser_schneiden
 62
7
100
AcDbPolyline
 90
2
 70
0
 10
319.138114
 20
272.607368
 30
0.0
 10
317.137864
 20
272.523054
 30
0.0
  0
LWPOLYLINE
  5
22e
100
AcDbEntity
  8
compi_laser_schneiden
 62
7
100
AcDbPolyline
 90
2
 70
0
 10
259.186565
 20
272.522948
 30
0.0
 10
257.187020
 20
272.438282
 30
0.0
  0
SPLINE
  5
22f
100
AcDbEntity
  8
compi_laser_schneiden
 62
7
100
AcDbSpline
 70
8
 71
3
 72
8
 73
4
 74
0
 40
0
 40
0
 40
0
 40
0
 40
1
 40
1
 40
1
 40
1
 10
321.063046
 20
259.379224
 30
0.0
 10
321.063046
 20
278.709330
 30
0.0
 10
336.733435
 20
294.379366
 30
0.0
 10
356.063188
 20
294.379366
 30
0.0
  0
SPLINE
  5
230
100
AcDbEntity
  8
compi_laser_schneiden
 62
7
100
AcDbSpline
 70
8
 71
3
 72
8
 73
4
 74
0
 40
0
 40
0
 40
0
 40
0
 40
1
 40
1
 40
1
 40
1
 10
356.063188
 20
294.379366
 30
0.0
 10
375.393293
 20
294.379366
 30
0.0
 10
391.063329
 20
278.709330
 30
0.0
 10
391.063329
 20
259.379224
 30
0.0
  0
SPLINE
  5
231
100
AcDbEntity
  8
compi_laser_schneiden
 62
7
100
AcDbSpline
 70
8
 71
3
 72
8
 73
4
 74
0
 40
0
 40
0
 40
0
 40
0
 40
1
 40
1
 40
1
 40
1
 10
391.063329
 20
259.379224
 30
0.0
 10
391.063329
 20
240.049472
 30
0.0
 10
375.393293
 20
224.379435
 30
0.0
 10
356.063188
 20
224.379435
 30
0.0
  0
SPLINE
  5
232
100
AcDbEntity
  8
compi_laser_schneiden
 62
7
100
AcDbSpline
 70
8
 71
3
 72
8
 73
4
 74
0
 40
0
 40
0
 40
0
 40
0
 40
1
 40
1
 40
1
 40
1
 10
356.063188
 20
224.379435
 30
0.0
 10
336.733435
 20
224.379435
 30
0.0
 10
321.063046
 20
240.049472
 30
0.0
 10
321.063046
 20
259.379224
 30
0.0
  0
LWPOLYLINE
  5
233
100
AcDbEntity
  8
compi_laser_schneiden
 62
7
100
AcDbPolyline
 90
2
 70
0
 10
257.187020
 20
217.084132
 30
0.0
 10
259.187270
 20
217.038624
 30
0.0
  0
LWPOLYLINE
  5
234
100
AcDbEntity
  8
compi_laser_schneiden
 62
7
100
AcDbPolyline
 90
2
 70
1
 10
321.063046
 20
259.379224
 30
0.0
 10
321.063046
 20
259.379224
 30
0.0
  0
LWPOLYLINE
  5
235
100
AcDbEntity
  8
compi_laser_schneiden
 62
2
100
AcDbPolyline
 90
6
 70
1
 10
380.745779
 20
264.380026
 30
0.0
 10
381.745551
 20
264.380026
 30
0.0
 10
381.745551
 20
254.379481
 30
0.0
 10
380.745779
 20
254.379481
 30
0.0
 10
380.745779
 20
264.380026
 30
0.0
 10
380.745779
 20
264.380026
 30
0.0
  0
LWPOLYLINE
  5
236
100
AcDbEntity
  8
compi_laser_schneiden
 62
2
100
AcDbPolyline
 90
6
 70
1
 10
365.544232
 20
276.316615
 30
0.0
 10
366.544004
 20
276.316615
 30
0.0
 10
366.544004
 20
266.316776
 30
0.0
 10
365.544232
 20
266.316776
 30
0.0
 10
365.544232
 20
276.316615
 30
0.0
 10
365.544232
 20
276.316615
 30
0.0
  0
LWPOLYLINE
  5
237
100
AcDbEntity
  8
compi_laser_schneiden
 62
2
100
AcDbPolyline
 90
6
 70
1
 10
377.618086
 20
274.637886
 30
0.0
 10
378.559650
 20
274.300984
 30
0.0
 10
375.188859
 20
264.885697
 30
0.0
 10
374.247647
 20
265.222953
 30
0.0
 10
377.618086
 20
274.637886
 30
0.0
 10
377.618086
 20
274.637886
 30
0.0
  0
LWPOLYLINE
  5
238
100
AcDbEntity
  8
compi_laser_schneiden
 62
2
100
AcDbPolyline
 90
6
 70
1
 10
335.546479
 20
275.846715
 30
0.0
 10
336.546604
 20
275.846715
 30
0.0
 10
336.546604
 20
265.846876
 30
0.0
 10
335.546479
 20
265.846876
 30
0.0
 10
335.546479
 20
275.846715
 30
0.0
 10
335.546479
 20
275.846715
 30
0.0
  0
LWPOLYLINE
  5
239
100
AcDbEntity
  8
compi_laser_schneiden
 62
2
100
AcDbPolyline
 90
6
 70
1
 10
368.030609
 20
246.254656
 30
0.0
 10
369.030382
 20
246.254656
 30
0.0
 10
369.030382
 20
236.254465
 30
0.0
 10
368.030609
 20
236.254465
 30
0.0
 10
368.030609
 20
246.254656
 30
0.0
 10
368.030609
 20
246.254656
 30
0.0
  0
LWPOLYLINE
  5
23a
100
AcDbEntity
  8
compi_laser_schneiden
 62
2
100
AcDbPolyline
 90
6
 70
1
 10
357.698207
 20
272.181883
 30
0.0
 10
357.196557
 20
271.316872
 30
0.0
 10
348.545740
 20
276.333724
 30
0.0
 10
349.047390
 20
277.198735
 30
0.0
 10
357.698207
 20
272.181883
 30
0.0
 10
357.698207
 20
272.181883
 30
0.0
  0
LWPOLYLINE
  5
23b
100
AcDbEntity
  8
compi_laser_schneiden
 62
2
100
AcDbPolyline
 90
6
 70
1
 10
378.028755
 20
248.433447
 30
0.0
 10
377.527105
 20
247.568083
 30
0.0
 10
368.876288
 20
252.584936
 30
0.0
 10
369.377938
 20
253.449947
 30
0.0
 10
378.028755
 20
248.433447
 30
0.0
 10
378.028755
 20
248.433447
 30
0.0
  0
LWPOLYLINE
  5
23c
100
AcDbEntity
  8
compi_laser_schneiden
 62
2
100
AcDbPolyline
 90
6
 70
1
 10
367.697940
 20
258.879515
 30
0.0
 10
357.698101
 20
258.879515
 30
0.0
 10
357.698101
 20
259.879640
 30
0.0
 10
367.697940
 20
259.879640
 30
0.0
 10
367.697940
 20
258.879515
 30
0.0
 10
367.697940
 20
258.879515
 30
0.0
  0
LWPOLYLINE
  5
23d
100
AcDbEntity
  8
compi_laser_schneiden
 62
2
100
AcDbPolyline
 90
6
 70
1
 10
344.145896
 20
238.918466
 30
0.0
 10
343.438929
 20
238.211499
 30
0.0
 10
336.367499
 20
245.282577
 30
0.0
 10
337.074818
 20
245.989544
 30
0.0
 10
344.145896
 20
238.918466
 30
0.0
 10
344.145896
 20
238.918466
 30
0.0
  0
LWPOLYLINE
  5
23e
100
AcDbEntity
  8
compi_laser_schneiden
 62
2
100
AcDbPolyline
 90
6
 70
1
 10
362.698020
 20
283.777512
 30
0.0
 10
352.697829
 20
283.777512
 30
0.0
 10
352.697829
 20
284.777284
 30
0.0
 10
362.698020
 20
284.777284
 30
0.0
 10
362.698020
 20
283.777512
 30
0.0
 10
362.698020
 20
283.777512
 30
0.0
  0
LWPOLYLINE
  5
23f
100
AcDbEntity
  8
compi_laser_schneiden
 62
2
100
AcDbPolyline
 90
6
 70
1
 10
345.884949
 20
271.206240
 30
0.0
 10
344.976194
 20
270.789963
 30
0.0
 10
340.811299
 20
279.881752
 30
0.0
 10
341.720407
 20
280.297677
 30
0.0
 10
345.884949
 20
271.206240
 30
0.0
 10
345.884949
 20
271.206240
 30
0.0
  0
LWPOLYLINE
  5
240
100
AcDbEntity
  8
compi_laser_schneiden
 62
2
100
AcDbPolyline
 90
6
 70
1
 10
361.348293
 20
232.412715
 30
0.0
 10
351.348101
 20
232.412715
 30
0.0
 10
351.348101
 20
233.412487
 30
0.0
 10
361.348293
 20
233.412487
 30
0.0
 10
361.348293
 20
232.412715
 30
0.0
 10
361.348293
 20
232.412715
 30
0.0
  0
LWPOLYLINE
  5
241
100
AcDbEntity
  8
compi_laser_schneiden
 62
2
100
AcDbPolyline
 90
6
 70
1
 10
361.697895
 20
240.100448
 30
0.0
 10
351.698057
 20
240.100448
 30
0.0
 10
351.698057
 20
241.100573
 30
0.0
 10
361.697895
 20
241.100573
 30
0.0
 10
361.697895
 20
240.100448
 30
0.0
 10
361.697895
 20
240.100448
 30
0.0
  0
LWPOLYLINE
  5
242
100
AcDbEntity
  8
compi_laser_schneiden
 62
2
100
AcDbPolyline
 90
6
 70
1
 10
362.698020
 20
248.509259
 30
0.0
 10
352.697829
 20
248.509259
 30
0.0
 10
352.697829
 20
249.509031
 30
0.0
 10
362.698020
 20
249.509031
 30
0.0
 10
362.698020
 20
248.509259
 30
0.0
 10
362.698020
 20
248.509259
 30
0.0
  0
LWPOLYLINE
  5
243
100
AcDbEntity
  8
compi_laser_schneiden
 62
2
100
AcDbPolyline
 90
6
 70
1
 10
331.764348
 20
253.380062
 30
0.0
 10
330.764223
 20
253.380062
 30
0.0
 10
330.764223
 20
263.380254
 30
0.0
 10
331.764348
 20
263.380254
 30
0.0
 10
331.764348
 20
253.380062
 30
0.0
 10
331.764348
 20
253.380062
 30
0.0
  0
LWPOLYLINE
  5
244
100
AcDbEntity
  8
compi_laser_schneiden
 62
2
100
AcDbPolyline
 90
6
 70
1
 10
341.848501
 20
249.461054
 30
0.0
 10
340.848376
 20
249.461054
 30
0.0
 10
340.848376
 20
259.461245
 30
0.0
 10
341.848501
 20
259.461245
 30
0.0
 10
341.848501
 20
249.461054
 30
0.0
 10
341.848501
 20
249.461054
 30
0.0
  0
LWPOLYLINE
  5
245
100
AcDbEntity
  8
compi_laser_schneiden
 62
2
100
AcDbPolyline
 90
6
 70
1
 10
348.665579
 20
254.379834
 30
0.0
 10
347.665454
 20
254.379834
 30
0.0
 10
347.665454
 20
264.380379
 30
0.0
 10
348.665579
 20
264.380379
 30
0.0
 10
348.665579
 20
254.379834
 30
0.0
 10
348.665579
 20
254.379834
 30
0.0
  0
LWPOLYLINE
  5
246
100
AcDbEntity
  8
compi_laser_schneiden
 62
2
100
AcDbPolyline
 90
2
 70
0
 10
392.932240
 20
114.728270
 30
0.0
 10
392.932240
 20
89.728673
 30
0.0
  0
LWPOLYLINE
  5
247
100
AcDbEntity
  8
compi_laser_schneiden
 62
2
100
AcDbPolyline
 90
2
 70
0
 10
332.219643
 20
119.728155
 30
0.0
 10
389.219360
 20
119.728155
 30
0.0
  0
LWPOLYLINE
  5
248
100
AcDbEntity
  8
compi_laser_schneiden
 62
2
100
AcDbPolyline
 90
6
 70
0
 10
389.219430
 20
89.728250
 30
0.0
 10
389.219430
 20
84.728330
 30
0.0
 10
332.219714
 20
84.728330
 30
0.0
 10
332.219714
 20
89.728250
 30
0.0
 10
328.550119
 20
89.728250
 30
0.0
 10
328.550119
 20
114.728200
 30
0.0
  0
LWPOLYLINE
  5
249
100
AcDbEntity
  8
compi_laser_schneiden
 62
2
100
AcDbPolyline
 90
2
 70
0
 10
392.932240
 20
89.728603
 30
0.0
 10
389.219607
 20
89.728250
 30
0.0
  0
LWPOLYLINE
  5
24a
100
AcDbEntity
  8
compi_laser_schneiden
 62
2
100
AcDbPolyline
 90
2
 70
0
 10
392.932240
 20
114.728270
 30
0.0
 10
389.219607
 20
114.728270
 30
0.0
  0
LWPOLYLINE
  5
24b
100
AcDbEntity
  8
compi_laser_schneiden
 62
2
100
AcDbPolyline
 90
2
 70
0
 10
389.219430
 20
114.728270
 30
0.0
 10
389.219430
 20
119.728190
 30
0.0
  0
LWPOLYLINE
  5
24c
100
AcDbEntity
  8
compi_laser_schneiden
 62
2
100
AcDbPolyline
 90
3
 70
0
 10
332.219643
 20
119.728472
 30
0.0
 10
332.219643
 20
114.728200
 30
0.0
 10
328.550402
 20
114.728270
 30
0.0
  0
LWPOLYLINE
  5
24d
100
AcDbEntity
  8
compi_laser_schneiden
 62
2
100
AcDbPolyline
 90
3
 70
0
 10
332.219643
 20
119.728155
 30
0.0
 10
332.219643
 20
114.728235
 30
0.0
 10
328.550402
 20
114.728270
 30
0.0
  0
SPLINE
  5
24e
100
AcDbEntity
  8
compi_laser_schneiden
 62
2
100
AcDbSpline
 70
8
 71
3
 72
8
 73
4
 74
0
 40
0
 40
0
 40
0
 40
0
 40
1
 40
1
 40
1
 40
1
 10
358.469379
 20
112.728409
 30
0.0
 10
358.469379
 20
113.970892
 30
0.0
 10
359.476912
 20
114.978072
 30
0.0
 10
360.719396
 20
114.978072
 30
0.0
  0
SPLINE
  5
24f
100
AcDbEntity
  8
compi_laser_schneiden
 62
2
100
AcDbSpline
 70
8
 71
3
 72
8
 73
4
 74
0
 40
0
 40
0
 40
0
 40
0
 40
1
 40
1
 40
1
 40
1
 10
360.719396
 20
114.978072
 30
0.0
 10
361.962232
 20
114.978072
 30
0.0
 10
362.969412
 20
113.970892
 30
0.0
 10
362.969412
 20
112.728409
 30
0.0
  0
SPLINE
  5
250
100
AcDbEntity
  8
compi_laser_schneiden
 62
2
100
AcDbSpline
 70
8
 71
3
 72
8
 73
4
 74
0
 40
0
 40
0
 40
0
 40
0
 40
1
 40
1
 40
1
 40
1
 10
362.969412
 20
112.728409
 30
0.0
 10
362.969412
 20
111.485925
 30
0.0
 10
361.962232
 20
110.478745
 30
0.0
 10
360.719396
 20
110.478745
 30
0.0
  0
SPLINE
  5
251
100
AcDbEntity
  8
compi_laser_schneiden
 62
2
100
AcDbSpline
 70
8
 71
3
 72
8
 73
4
 74
0
 40
0
 40
0
 40
0
 40
0
 40
1
 40
1
 40
1
 40
1
 10
360.719396
 20
110.478745
 30
0.0
 10
359.476912
 20
110.478745
 30
0.0
 10
358.469379
 20
111.485925
 30
0.0
 10
358.469379
 20
112.728409
 30
0.0
  0
LWPOLYLINE
  5
252
100
AcDbEntity
  8
compi_laser_schneiden
 62
2
100
AcDbPolyline
 90
2
 70
0
 10
360.719537
 20
84.728366
 30
0.0
 10
360.719537
 20
91.768399
 30
0.0
  0
LWPOLYLINE
  5
253
100
AcDbEntity
  8
compi_laser_schneiden
 62
2
100
AcDbPolyline
 90
2
 70
1
 10
358.469379
 20
112.728409
 30
0.0
 10
358.469379
 20
112.728409
 30
0.0
  0
LWPOLYLINE
  5
254
100
AcDbEntity
  8
compi_laser_schneiden
 62
2
100
AcDbPolyline
 90
6
 70
1
 10
373.219265
 20
104.728679
 30
0.0
 10
376.219287
 20
104.728679
 30
0.0
 10
376.219287
 20
99.728406
 30
0.0
 10
373.219265
 20
99.728406
 30
0.0
 10
373.219265
 20
104.728679
 30
0.0
 10
373.219265
 20
104.728679
 30
0.0
  0
LWPOLYLINE
  5
255
100
AcDbEntity
  8
compi_laser_schneiden
 62
2
100
AcDbPolyline
 90
6
 70
1
 10
345.219293
 20
104.728679
 30
0.0
 10
348.219315
 20
104.728679
 30
0.0
 10
348.219315
 20
99.728406
 30
0.0
 10
345.219293
 20
99.728406
 30
0.0
 10
345.219293
 20
104.728679
 30
0.0
 10
345.219293
 20
104.728679
 30
0.0
  0
LWPOLYLINE
  5
256
100
AcDbEntity
  8
compi_laser_schneiden
 62
2
100
AcDbPolyline
 90
6
 70
1
 10
335.719340
 20
126.542692
 30
0.0
 10
385.719240
 20
126.542692
 30
0.0
 10
385.719240
 20
121.542420
 30
0.0
 10
335.719340
 20
121.542420
 30
0.0
 10
335.719340
 20
126.542692
 30
0.0
 10
335.719340
 20
126.542692
 30
0.0
  0
LWPOLYLINE
  5
257
100
AcDbEntity
  8
compi_laser_schneiden
 62
7
100
AcDbPolyline
 90
4
 70
0
 10
337.481006
 20
143.065216
 30
0.0
 10
337.481006
 20
151.565044
 30
0.0
 10
384.481237
 20
151.565044
 30
0.0
 10
384.481237
 20
144.530302
 30
0.0
  0
LWPOLYLINE
  5
258
100
AcDbEntity
  8
compi_laser_schneiden
 62
7
100
AcDbPolyline
 90
4
 70
0
 10
384.481060
 20
138.610691
 30
0.0
 10
384.481060
 20
131.565013
 30
0.0
 10
337.480830
 20
131.565013
 30
0.0
 10
337.480830
 20
140.065194
 30
0.0
  0
LWPOLYLINE
  5
259
100
AcDbEntity
  8
compi_laser_schneiden
 62
7
100
AcDbPolyline
 90
4
 70
0
 10
337.481006
 20
140.065229
 30
0.0
 10
334.480984
 20
140.065229
 30
0.0
 10
334.480984
 20
143.065251
 30
0.0
 10
337.481006
 20
143.065251
 30
0.0
  0
LWPOLYLINE
  5
25a
100
AcDbEntity
  8
compi_laser_schneiden
 62
7
100
AcDbPolyline
 90
6
 70
1
 10
383.437120
 20
140.065017
 30
0.0
 10
382.436643
 20
140.065017
 30
0.0
 10
382.436643
 20
143.065040
 30
0.0
 10
383.437120
 20
143.065040
 30
0.0
 10
383.437120
 20
140.065017
 30
0.0
 10
383.437120
 20
140.065017
 30
0.0
  0
LWPOLYLINE
  5
25b
100
AcDbEntity
  8
compi_laser_schneiden
 62
7
100
AcDbPolyline
 90
2
 70
0
 10
384.436963
 20
144.519719
 30
0.0
 10
387.223202
 20
144.530302
 30
0.0
  0
SPLINE
  5
25c
100
AcDbEntity
  8
compi_laser_schneiden
 62
7
100
AcDbSpline
 70
8
 71
3
 72
8
 73
4
 74
0
 40
0
 40
0
 40
0
 40
0
 40
1
 40
1
 40
1
 40
1
 10
387.223343
 20
144.525257
 30
0.0
 10
388.899743
 20
144.525257
 30
0.0
 10
390.258996
 20
143.200224
 30
0.0
 10
390.258996
 20
141.564746
 30
0.0
  0
SPLINE
  5
25d
100
AcDbEntity
  8
compi_laser_schneiden
 62
7
100
AcDbSpline
 70
8
 71
3
 72
8
 73
4
 74
0
 40
0
 40
0
 40
0
 40
0
 40
1
 40
1
 40
1
 40
1
 10
390.258996
 20
141.564746
 30
0.0
 10
390.258996
 20
139.929621
 30
0.0
 10
388.899743
 20
138.604588
 30
0.0
 10
387.223343
 20
138.604588
 30
0.0
  0
SPLINE
  5
25e
100
AcDbEntity
  8
compi_laser_schneiden
 62
7
100
AcDbSpline
 70
8
 71
3
 72
8
 73
4
 74
0
 40
0
 40
0
 40
0
 40
0
 40
1
 40
1
 40
1
 40
1
 10
386.736228
 20
142.508497
 30
0.0
 10
387.257633
 20
142.508497
 30
0.0
 10
387.679203
 20
142.086222
 30
0.0
 10
387.679203
 20
141.565522
 30
0.0
  0
SPLINE
  5
25f
100
AcDbEntity
  8
compi_laser_schneiden
 62
7
100
AcDbSpline
 70
8
 71
3
 72
8
 73
4
 74
0
 40
0
 40
0
 40
0
 40
0
 40
1
 40
1
 40
1
 40
1
 10
387.679203
 20
141.565522
 30
0.0
 10
387.679203
 20
141.044822
 30
0.0
 10
387.257633
 20
140.622195
 30
0.0
 10
386.736228
 20
140.622195
 30
0.0
  0
SPLINE
  5
260
100
AcDbEntity
  8
compi_laser_schneiden
 62
7
100
AcDbSpline
 70
8
 71
3
 72
8
 73
4
 74
0
 40
0
 40
0
 40
0
 40
0
 40
1
 40
1
 40
1
 40
1
 10
386.736228
 20
140.622195
 30
0.0
 10
386.215175
 20
140.622195
 30
0.0
 10
385.793605
 20
141.044822
 30
0.0
 10
385.793605
 20
141.565522
 30
0.0
  0
SPLINE
  5
261
100
AcDbEntity
  8
compi_laser_schneiden
 62
7
100
AcDbSpline
 70
8
 71
3
 72
8
 73
4
 74
0
 40
0
 40
0
 40
0
 40
0
 40
1
 40
1
 40
1
 40
1
 10
385.793605
 20
141.565522
 30
0.0
 10
385.793605
 20
142.086222
 30
0.0
 10
386.215175
 20
142.508497
 30
0.0
 10
386.736228
 20
142.508497
 30
0.0
  0
LWPOLYLINE
  5
262
100
AcDbEntity
  8
compi_laser_schneiden
 62
7
100
AcDbPolyline
 90
2
 70
0
 10
387.223343
 20
138.621380
 30
0.0
 10
384.437104
 20
138.610797
 30
0.0
  0
SPLINE
  5
263
100
AcDbEntity
  8
compi_laser_schneiden
 62
7
100
AcDbSpline
 70
8
 71
3
 72
8
 73
4
 74
0
 40
0
 40
0
 40
0
 40
0
 40
1
 40
1
 40
1
 40
1
 10
268.328130
 20
92.579047
 30
0.0
 10
268.849183
 20
92.579047
 30
0.0
 10
269.270753
 20
92.156772
 30
0.0
 10
269.270753
 20
91.636072
 30
0.0
  0
SPLINE
  5
264
100
AcDbEntity
  8
compi_laser_schneiden
 62
7
100
AcDbSpline
 70
8
 71
3
 72
8
 73
4
 74
0
 40
0
 40
0
 40
0
 40
0
 40
1
 40
1
 40
1
 40
1
 10
269.270753
 20
91.636072
 30
0.0
 10
269.270753
 20
91.115372
 30
0.0
 10
268.849183
 20
90.692744
 30
0.0
 10
268.328130
 20
90.692744
 30
0.0
  0
SPLINE
  5
265
100
AcDbEntity
  8
compi_laser_schneiden
 62
7
100
AcDbSpline
 70
8
 71
3
 72
8
 73
4
 74
0
 40
0
 40
0
 40
0
 40
0
 40
1
 40
1
 40
1
 40
1
 10
268.328130
 20
90.692744
 30
0.0
 10
267.807078
 20
90.692744
 30
0.0
 10
267.385508
 20
91.115372
 30
0.0
 10
267.385508
 20
91.636072
 30
0.0
  0
SPLINE
  5
266
100
AcDbEntity
  8
compi_laser_schneiden
 62
7
100
AcDbSpline
 70
8
 71
3
 72
8
 73
4
 74
0
 40
0
 40
0
 40
0
 40
0
 40
1
 40
1
 40
1
 40
1
 10
267.385508
 20
91.636072
 30
0.0
 10
267.385508
 20
92.156772
 30
0.0
 10
267.807078
 20
92.579047
 30
0.0
 10
268.328130
 20
92.579047
 30
0.0
  0
LWPOLYLINE
  5
267
100
AcDbEntity
  8
compi_laser_schneiden
 62
7
100
AcDbPolyline
 90
2
 70
1
 10
386.736228
 20
142.508497
 30
0.0
 10
386.736228
 20
142.508497
 30
0.0
  0
SPLINE
  5
268
100
AcDbEntity
  8
compi_laser_schneiden
 62
7
100
AcDbSpline
 70
8
 71
3
 72
8
 73
4
 74
0
 40
0
 40
0
 40
0
 40
0
 40
1
 40
1
 40
1
 40
1
 10
278.482027
 20
92.579047
 30
0.0
 10
279.003080
 20
92.579047
 30
0.0
 10
279.424650
 20
92.156772
 30
0.0
 10
279.424650
 20
91.636072
 30
0.0
  0
SPLINE
  5
269
100
AcDbEntity
  8
compi_laser_schneiden
 62
7
100
AcDbSpline
 70
8
 71
3
 72
8
 73
4
 74
0
 40
0
 40
0
 40
0
 40
0
 40
1
 40
1
 40
1
 40
1
 10
279.424650
 20
91.636072
 30
0.0
 10
279.424650
 20
91.115372
 30
0.0
 10
279.003080
 20
90.692744
 30
0.0
 10
278.482027
 20
90.692744
 30
0.0
  0
SPLINE
  5
26a
100
AcDbEntity
  8
compi_laser_schneiden
 62
7
100
AcDbSpline
 70
8
 71
3
 72
8
 73
4
 74
0
 40
0
 40
0
 40
0
 40
0
 40
1
 40
1
 40
1
 40
1
 10
278.482027
 20
90.692744
 30
0.0
 10
277.960975
 20
90.692744
 30
0.0
 10
277.539405
 20
91.115372
 30
0.0
 10
277.539405
 20
91.636072
 30
0.0
  0
SPLINE
  5
26b
100
AcDbEntity
  8
compi_laser_schneiden
 62
7
100
AcDbSpline
 70
8
 71
3
 72
8
 73
4
 74
0
 40
0
 40
0
 40
0
 40
0
 40
1
 40
1
 40
1
 40
1
 10
277.539405
 20
91.636072
 30
0.0
 10
277.539405
 20
92.156772
 30
0.0
 10
277.960975
 20
92.579047
 30
0.0
 10
278.482027
 20
92.579047
 30
0.0
  0
LWPOLYLINE
  5
26c
100
AcDbEntity
  8
compi_laser_schneiden
 62
7
100
AcDbPolyline
 90
2
 70
1
 10
268.328130
 20
92.579047
 30
0.0
 10
268.328130
 20
92.579047
 30
0.0
  0
LWPOLYLINE
  5
26d
100
AcDbEntity
  8
compi_laser_schneiden
 62
7
100
AcDbPolyline
 90
2
 70
1
 10
278.482027
 20
92.579047
 30
0.0
 10
278.482027
 20
92.579047
 30
0.0
  0
LWPOLYLINE
  5
26e
100
AcDbEntity
  8
compi_laser_schneiden
 62
7
100
AcDbPolyline
 90
6
 70
1
 10
371.480776
 20
136.565109
 30
0.0
 10
352.481223
 20
136.565109
 30
0.0
 10
352.481223
 20
146.564948
 30
0.0
 10
371.480776
 20
146.564948
 30
0.0
 10
371.480776
 20
136.565109
 30
0.0
 10
371.480776
 20
136.565109
 30
0.0
  0
LWPOLYLINE
  5
26f
100
AcDbEntity
  8
compi_laser_schneiden
 62
7
100
AcDbPolyline
 90
2
 70
0
 10
317.137194
 20
318.491022
 30
0.0
 10
317.137899
 20
312.766144
 30
0.0
  0
LWPOLYLINE
  5
270
100
AcDbEntity
  8
compi_laser_schneiden
 62
7
100
AcDbPolyline
 90
2
 70
0
 10
317.137899
 20
370.887306
 30
0.0
 10
317.137899
 20
323.320514
 30
0.0
  0
LWPOLYLINE
  5
271
100
AcDbEntity
  8
compi_laser_schneiden
 62
7
100
AcDbPolyline
 90
2
 70
0
 10
257.187020
 20
459.176506
 30
0.0
 10
257.187020
 20
485.293704
 30
0.0
  0
LWPOLYLINE
  5
272
100
AcDbEntity
  8
compi_laser_schneiden
 62
7
100
AcDbPolyline
 90
2
 70
0
 10
257.187020
 20
429.940048
 30
0.0
 10
257.187020
 20
459.147931
 30
0.0
  0
LWPOLYLINE
  5
273
100
AcDbEntity
  8
compi_laser_schneiden
 62
7
100
AcDbPolyline
 90
2
 70
0
 10
319.137409
 20
459.046966
 30
0.0
 10
319.138114
 20
429.922691
 30
0.0
  0
SPLINE
  5
274
100
AcDbEntity
  8
compi_laser_schneiden
 62
7
100
AcDbSpline
 70
8
 71
3
 72
8
 73
4
 74
0
 40
0
 40
0
 40
0
 40
0
 40
1
 40
1
 40
1
 40
1
 10
312.031547
 20
436.743403
 30
0.0
 10
312.031547
 20
436.743403
 30
0.0
 10
296.010144
 20
435.356280
 30
0.0
 10
288.166130
 20
435.356280
 30
0.0
  0
SPLINE
  5
275
100
AcDbEntity
  8
compi_laser_schneiden
 62
7
100
AcDbSpline
 70
8
 71
3
 72
8
 73
4
 74
0
 40
0
 40
0
 40
0
 40
0
 40
1
 40
1
 40
1
 40
1
 10
288.166024
 20
435.356422
 30
0.0
 10
280.321658
 20
435.356422
 30
0.0
 10
264.967005
 20
436.743544
 30
0.0
 10
264.967005
 20
436.743544
 30
0.0
  0
SPLINE
  5
276
100
AcDbEntity
  8
compi_laser_schneiden
 62
7
100
AcDbSpline
 70
8
 71
3
 72
8
 73
4
 74
0
 40
0
 40
0
 40
0
 40
0
 40
1
 40
1
 40
1
 40
1
 10
264.966723
 20
436.743403
 30
0.0
 10
264.966723
 20
436.743403
 30
0.0
 10
263.734470
 20
449.316755
 30
0.0
 10
263.734470
 20
456.727558
 30
0.0
  0
SPLINE
  5
277
100
AcDbEntity
  8
compi_laser_schneiden
 62
7
100
AcDbSpline
 70
8
 71
3
 72
8
 73
4
 74
0
 40
0
 40
0
 40
0
 40
0
 40
1
 40
1
 40
1
 40
1
 10
263.734435
 20
456.727735
 30
0.0
 10
263.734435
 20
464.139596
 30
0.0
 10
264.966687
 20
476.711890
 30
0.0
 10
264.966687
 20
476.711890
 30
0.0
  0
LWPOLYLINE
  5
278
100
AcDbEntity
  8
compi_laser_schneiden
 62
7
100
AcDbPolyline
 90
2
 70
0
 10
319.138114
 20
485.463249
 30
0.0
 10
319.137409
 20
459.046896
 30
0.0
  0
SPLINE
  5
279
100
AcDbEntity
  8
compi_laser_schneiden
 62
7
100
AcDbSpline
 70
8
 71
3
 72
8
 73
4
 74
0
 40
0
 40
0
 40
0
 40
0
 40
1
 40
1
 40
1
 40
1
 10
264.966723
 20
476.712737
 30
0.0
 10
264.966723
 20
476.712737
 30
0.0
 10
280.321375
 20
478.099859
 30
0.0
 10
288.165389
 20
478.099859
 30
0.0
  0
SPLINE
  5
27a
100
AcDbEntity
  8
compi_laser_schneiden
 62
7
100
AcDbSpline
 70
8
 71
3
 72
8
 73
4
 74
0
 40
0
 40
0
 40
0
 40
0
 40
1
 40
1
 40
1
 40
1
 10
288.166024
 20
478.099718
 30
0.0
 10
296.010038
 20
478.099718
 30
0.0
 10
312.031441
 20
476.712596
 30
0.0
 10
312.031441
 20
476.712596
 30
0.0
  0
SPLINE
  5
27b
100
AcDbEntity
  8
compi_laser_schneiden
 62
7
100
AcDbSpline
 70
8
 71
3
 72
8
 73
4
 74
0
 40
0
 40
0
 40
0
 40
0
 40
1
 40
1
 40
1
 40
1
 10
312.031547
 20
476.712737
 30
0.0
 10
312.031547
 20
476.712737
 30
0.0
 10
313.264152
 20
463.389026
 30
0.0
 10
313.264152
 20
456.728581
 30
0.0
  0
SPLINE
  5
27c
100
AcDbEntity
  8
compi_laser_schneiden
 62
7
100
AcDbSpline
 70
8
 71
3
 72
8
 73
4
 74
0
 40
0
 40
0
 40
0
 40
0
 40
1
 40
1
 40
1
 40
1
 10
313.264223
 20
456.727735
 30
0.0
 10
313.264223
 20
450.066232
 30
0.0
 10
312.031617
 20
436.743579
 30
0.0
 10
312.031617
 20
436.743579
 30
0.0
  0
LWPOLYLINE
  5
27d
100
AcDbEntity
  8
compi_laser_schneiden
 62
7
100
AcDbPolyline
 90
2
 70
0
 10
317.137899
 20
312.815568
 30
0.0
 10
317.137194
 20
304.491424
 30
0.0
  0
LWPOLYLINE
  5
27e
100
AcDbEntity
  8
compi_laser_schneiden
 62
7
100
AcDbPolyline
 90
2
 70
0
 10
259.186565
 20
485.378864
 30
0.0
 10
259.187270
 20
490.248961
 30
0.0
  0
LWPOLYLINE
  5
27f
100
AcDbEntity
  8
compi_laser_schneiden
 62
7
100
AcDbPolyline
 90
2
 70
0
 10
259.187235
 20
495.078172
 30
0.0
 10
259.187235
 20
498.397105
 30
0.0
  0
LWPOLYLINE
  5
280
100
AcDbEntity
  8
compi_laser_schneiden
 62
7
100
AcDbPolyline
 90
2
 70
0
 10
317.135818
 20
498.464697
 30
0.0
 10
317.136524
 20
495.075561
 30
0.0
  0
LWPOLYLINE
  5
281
100
AcDbEntity
  8
compi_laser_schneiden
 62
7
100
AcDbPolyline
 90
2
 70
0
 10
317.137194
 20
490.255064
 30
0.0
 10
317.137899
 20
485.378970
 30
0.0
  0
LWPOLYLINE
  5
282
100
AcDbEntity
  8
compi_laser_schneiden
 62
7
100
AcDbPolyline
 90
4
 70
0
 10
317.137194
 20
495.083710
 30
0.0
 10
320.035616
 20
495.083710
 30
0.0
 10
320.035616
 20
490.254888
 30
0.0
 10
317.137194
 20
490.254888
 30
0.0
  0
LWPOLYLINE
  5
283
100
AcDbEntity
  8
compi_laser_schneiden
 62
7
100
AcDbPolyline
 90
4
 70
0
 10
259.187235
 20
490.248855
 30
0.0
 10
256.289518
 20
490.248855
 30
0.0
 10
256.289518
 20
495.078030
 30
0.0
 10
259.187235
 20
495.078030
 30
0.0
  0
LWPOLYLINE
  5
284
100
AcDbEntity
  8
compi_laser_schneiden
 62
7
100
AcDbPolyline
 90
2
 70
0
 10
374.924381
 20
438.168978
 30
0.0
 10
379.753556
 20
429.804264
 30
0.0
  0
LWPOLYLINE
  5
285
100
AcDbEntity
  8
compi_laser_schneiden
 62
7
100
AcDbPolyline
 90
4
 70
1
 10
318.103875
 20
429.804299
 30
0.0
 10
346.514128
 20
433.529985
 30
0.0
 10
318.103875
 20
429.804299
 30
0.0
 10
318.103875
 20
429.804299
 30
0.0
  0
LWPOLYLINE
  5
286
100
AcDbEntity
  8
compi_laser_schneiden
 62
7
100
AcDbPolyline
 90
4
 70
1
 10
346.514022
 20
433.529844
 30
0.0
 10
374.924275
 20
438.168872
 30
0.0
 10
346.514022
 20
433.529844
 30
0.0
 10
346.514022
 20
433.529844
 30
0.0
  0
LWPOLYLINE
  5
287
100
AcDbEntity
  8
compi_laser_schneiden
 62
7
100
AcDbPolyline
 90
4
 70
0
 10
318.103875
 20
369.922000
 30
0.0
 10
360.947678
 20
370.167180
 30
0.0
 10
379.753556
 20
369.922000
 30
0.0
 10
399.065670
 20
369.922000
 30
0.0
  0
LWPOLYLINE
  5
288
100
AcDbEntity
  8
compi_laser_schneiden
 62
7
100
AcDbPolyline
 90
3
 70
0
 10
399.235039
 20
369.922000
 30
0.0
 10
399.235039
 20
429.804264
 30
0.0
 10
379.753591
 20
429.804264
 30
0.0
  0
LWPOLYLINE
  5
289
100
AcDbEntity
  8
compi_laser_schneiden
 62
7
100
AcDbPolyline
 90
6
 70
1
 10
392.304190
 20
379.823731
 30
0.0
 10
391.341459
 20
379.823731
 30
0.0
 10
391.341459
 20
418.454662
 30
0.0
 10
392.304190
 20
418.454662
 30
0.0
 10
392.304190
 20
379.823731
 30
0.0
 10
392.304190
 20
379.823731
 30
0.0
  0
LWPOLYLINE
  5
28a
100
AcDbEntity
  8
compi_laser_schneiden
 62
7
100
AcDbPolyline
 90
6
 70
1
 10
349.937343
 20
376.863926
 30
0.0
 10
323.929154
 20
376.863926
 30
0.0
 10
323.929154
 20
377.829831
 30
0.0
 10
349.937343
 20
377.829831
 30
0.0
 10
349.937343
 20
376.863926
 30
0.0
 10
349.937343
 20
376.863926
 30
0.0
  0
LWPOLYLINE
  5
28b
100
AcDbEntity
  8
compi_laser_schneiden
 62
7
100
AcDbPolyline
 90
6
 70
1
 10
376.963860
 20
428.431076
 30
0.0
 10
374.422802
 20
432.971326
 30
0.0
 10
375.304746
 20
433.494143
 30
0.0
 10
377.845804
 20
428.953540
 30
0.0
 10
376.963860
 20
428.431076
 30
0.0
 10
376.963860
 20
428.431076
 30
0.0
  0
LWPOLYLINE
  5
28c
100
AcDbEntity
  8
compi_laser_schneiden
 62
7
100
AcDbPolyline
 90
2
 70
0
 10
317.137194
 20
505.234326
 30
0.0
 10
317.137899
 20
498.399962
 30
0.0
  0
LWPOLYLINE
  5
28d
100
AcDbEntity
  8
compi_laser_schneiden
 62
7
100
AcDbPolyline
 90
4
 70
0
 10
259.187235
 20
505.882697
 30
0.0
 10
259.187235
 20
508.783588
 30
0.0
 10
317.138040
 20
508.783588
 30
0.0
 10
317.137335
 20
505.234291
 30
0.0
  0
LWPOLYLINE
  5
28e
100
AcDbEntity
  8
compi_laser_schneiden
 62
7
100
AcDbPolyline
 90
2
 70
0
 10
259.187235
 20
498.397175
 30
0.0
 10
259.187235
 20
505.882767
 30
0.0
  0
LWPOLYLINE
  5
28f
100
AcDbEntity
  8
compi_laser_schneiden
 62
7
100
AcDbPolyline
 90
6
 70
1
 10
369.417379
 20
371.879529
 30
0.0
 10
364.443565
 20
371.879529
 30
0.0
 10
364.443565
 20
372.845434
 30
0.0
 10
369.417379
 20
372.845434
 30
0.0
 10
369.417379
 20
371.879529
 30
0.0
 10
369.417379
 20
371.879529
 30
0.0
  0
LWPOLYLINE
  5
290
100
AcDbEntity
  8
compi_laser_schneiden
 62
7
100
AcDbPolyline
 90
2
 70
0
 10
201.400083
 20
438.168978
 30
0.0
 10
196.570908
 20
429.804264
 30
0.0
  0
LWPOLYLINE
  5
291
100
AcDbEntity
  8
compi_laser_schneiden
 62
7
100
AcDbPolyline
 90
4
 70
1
 10
258.221224
 20
429.804299
 30
0.0
 10
229.810971
 20
433.529985
 30
0.0
 10
258.221224
 20
429.804299
 30
0.0
 10
258.221224
 20
429.804299
 30
0.0
  0
LWPOLYLINE
  5
292
100
AcDbEntity
  8
compi_laser_schneiden
 62
7
100
AcDbPolyline
 90
4
 70
1
 10
229.810406
 20
433.529844
 30
0.0
 10
201.400154
 20
438.168872
 30
0.0
 10
229.810406
 20
433.529844
 30
0.0
 10
229.810406
 20
433.529844
 30
0.0
  0
LWPOLYLINE
  5
293
100
AcDbEntity
  8
compi_laser_schneiden
 62
7
100
AcDbPolyline
 90
4
 70
0
 10
258.221224
 20
369.922000
 30
0.0
 10
215.377421
 20
370.167180
 30
0.0
 10
196.570837
 20
369.922000
 30
0.0
 10
177.258724
 20
369.922000
 30
0.0
  0
LWPOLYLINE
  5
294
100
AcDbEntity
  8
compi_laser_schneiden
 62
7
100
AcDbPolyline
 90
3
 70
0
 10
177.089425
 20
369.922000
 30
0.0
 10
177.089425
 20
429.804264
 30
0.0
 10
196.570873
 20
429.804264
 30
0.0
  0
LWPOLYLINE
  5
295
100
AcDbEntity
  8
compi_laser_schneiden
 62
7
100
AcDbPolyline
 90
6
 70
1
 10
184.982687
 20
379.823731
 30
0.0
 10
184.019957
 20
379.823731
 30
0.0
 10
184.019957
 20
418.454662
 30
0.0
 10
184.982687
 20
418.454662
 30
0.0
 10
184.982687
 20
379.823731
 30
0.0
 10
184.982687
 20
379.823731
 30
0.0
  0
LWPOLYLINE
  5
296
100
AcDbEntity
  8
compi_laser_schneiden
 62
7
100
AcDbPolyline
 90
6
 70
1
 10
252.559034
 20
376.863926
 30
0.0
 10
226.465120
 20
376.863926
 30
0.0
 10
226.465120
 20
377.829831
 30
0.0
 10
252.559034
 20
377.829831
 30
0.0
 10
252.559034
 20
376.863926
 30
0.0
 10
252.559034
 20
376.863926
 30
0.0
  0
LWPOLYLINE
  5
297
100
AcDbEntity
  8
compi_laser_schneiden
 62
7
100
AcDbPolyline
 90
6
 70
1
 10
198.419358
 20
429.120122
 30
0.0
 10
201.090591
 20
433.738689
 30
0.0
 10
202.018749
 20
433.206700
 30
0.0
 10
199.346810
 20
428.587427
 30
0.0
 10
198.419358
 20
429.120122
 30
0.0
 10
198.419358
 20
429.120122
 30
0.0
  0
LWPOLYLINE
  5
298
100
AcDbEntity
  8
compi_laser_schneiden
 62
7
100
AcDbPolyline
 90
6
 70
1
 10
211.347182
 20
371.880940
 30
0.0
 10
206.004009
 20
371.880940
 30
0.0
 10
206.004009
 20
372.846845
 30
0.0
 10
211.347182
 20
372.846845
 30
0.0
 10
211.347182
 20
371.880940
 30
0.0
 10
211.347182
 20
371.880940
 30
0.0
  0
LWPOLYLINE
  5
299
100
AcDbEntity
  8
compi_laser_schneiden
 62
7
100
AcDbPolyline
 90
4
 70
0
 10
317.137194
 20
323.320373
 30
0.0
 10
320.035616
 20
323.320373
 30
0.0
 10
320.035616
 20
318.491198
 30
0.0
 10
317.137194
 20
318.491198
 30
0.0
  0
LWPOLYLINE
  5
29a
100
AcDbEntity
  8
compi_laser_schneiden
 62
7
100
AcDbPolyline
 90
6
 70
1
 10
297.810193
 20
370.874112
 30
0.0
 10
277.539229
 20
370.874112
 30
0.0
 10
277.539229
 20
377.864051
 30
0.0
 10
297.810193
 20
377.864051
 30
0.0
 10
297.810193
 20
370.874112
 30
0.0
 10
297.810193
 20
370.874112
 30
0.0
  0
LWPOLYLINE
  5
29b
100
AcDbEntity
  8
compi_laser_schneiden
 62
7
100
AcDbPolyline
 90
2
 70
0
 10
259.186565
 20
318.491022
 30
0.0
 10
259.185859
 20
312.766144
 30
0.0
  0
LWPOLYLINE
  5
29c
100
AcDbEntity
  8
compi_laser_schneiden
 62
7
100
AcDbPolyline
 90
2
 70
0
 10
259.185859
 20
370.887306
 30
0.0
 10
259.185859
 20
323.320514
 30
0.0
  0
LWPOLYLINE
  5
29d
100
AcDbEntity
  8
compi_laser_schneiden
 62
7
100
AcDbPolyline
 90
2
 70
0
 10
259.185859
 20
312.815568
 30
0.0
 10
259.186565
 20
304.491424
 30
0.0
  0
LWPOLYLINE
  5
29e
100
AcDbEntity
  8
compi_laser_schneiden
 62
7
100
AcDbPolyline
 90
5
 70
0
 10
259.186565
 20
304.491529
 30
0.0
 10
259.186917
 20
297.374590
 30
0.0
 10
265.535154
 20
297.374590
 30
0.0
 10
317.137723
 20
297.374590
 30
0.0
 10
317.137370
 20
304.624174
 30
0.0
  0
LWPOLYLINE
  5
29f
100
AcDbEntity
  8
compi_laser_schneiden
 62
7
100
AcDbPolyline
 90
4
 70
0
 10
259.186565
 20
323.320373
 30
0.0
 10
256.288142
 20
323.320373
 30
0.0
 10
256.288142
 20
318.491198
 30
0.0
 10
259.186565
 20
318.491198
 30
0.0
  0
LWPOLYLINE
  5
2a0
100
AcDbEntity
  8
compi_laser_schneiden
 62
7
100
AcDbPolyline
 90
2
 70
0
 10
317.127880
 20
428.838288
 30
0.0
 10
318.104017
 20
428.838288
 30
0.0
  0
LWPOLYLINE
  5
2a1
100
AcDbEntity
  8
compi_laser_schneiden
 62
7
100
AcDbPolyline
 90
2
 70
0
 10
259.187235
 20
428.838288
 30
0.0
 10
258.221329
 20
428.838288
 30
0.0
  0
LWPOLYLINE
  5
2a2
100
AcDbEntity
  8
compi_laser_schneiden
 62
7
100
AcDbPolyline
 90
2
 70
0
 10
317.137194
 20
370.887306
 30
0.0
 10
317.933766
 20
370.887306
 30
0.0
  0
LWPOLYLINE
  5
2a3
100
AcDbEntity
  8
compi_laser_schneiden
 62
7
100
AcDbPolyline
 90
2
 70
0
 10
259.019454
 20
370.887306
 30
0.0
 10
258.050373
 20
370.887306
 30
0.0
  0
LWPOLYLINE
  5
2a4
100
AcDbEntity
  8
compi_laser_schneiden
 62
7
100
AcDbPolyline
 90
2
 70
0
 10
317.127880
 20
428.838288
 30
0.0
 10
317.127880
 20
429.838765
 30
0.0
  0
LWPOLYLINE
  5
2a5
100
AcDbEntity
  8
compi_laser_schneiden
 62
7
100
AcDbPolyline
 90
2
 70
0
 10
259.187235
 20
428.838288
 30
0.0
 10
259.187235
 20
429.894152
 30
0.0
  0
LWPOLYLINE
  5
2a6
100
AcDbEntity
  8
compi_laser_schneiden
 62
7
100
AcDbPolyline
 90
2
 70
0
 10
319.138114
 20
429.922797
 30
0.0
 10
317.127986
 20
429.838836
 30
0.0
  0
LWPOLYLINE
  5
2a7
100
AcDbEntity
  8
compi_laser_schneiden
 62
7
100
AcDbPolyline
 90
2
 70
0
 10
319.138114
 20
485.463249
 30
0.0
 10
317.137864
 20
485.378935
 30
0.0
  0
LWPOLYLINE
  5
2a8
100
AcDbEntity
  8
compi_laser_schneiden
 62
7
100
AcDbPolyline
 90
2
 70
0
 10
259.186565
 20
485.378864
 30
0.0
 10
257.187020
 20
485.293845
 30
0.0
  0
SPLINE
  5
2a9
100
AcDbEntity
  8
compi_laser_schneiden
 62
7
100
AcDbSpline
 70
8
 71
3
 72
8
 73
4
 74
0
 40
0
 40
0
 40
0
 40
0
 40
1
 40
1
 40
1
 40
1
 10
321.063046
 20
472.235140
 30
0.0
 10
321.063046
 20
491.565246
 30
0.0
 10
336.733082
 20
507.234929
 30
0.0
 10
356.063188
 20
507.234929
 30
0.0
  0
SPLINE
  5
2aa
100
AcDbEntity
  8
compi_laser_schneiden
 62
7
100
AcDbSpline
 70
8
 71
3
 72
8
 73
4
 74
0
 40
0
 40
0
 40
0
 40
0
 40
1
 40
1
 40
1
 40
1
 10
356.063188
 20
507.234929
 30
0.0
 10
375.393293
 20
507.234929
 30
0.0
 10
391.063329
 20
491.565246
 30
0.0
 10
391.063329
 20
472.235140
 30
0.0
  0
SPLINE
  5
2ab
100
AcDbEntity
  8
compi_laser_schneiden
 62
7
100
AcDbSpline
 70
8
 71
3
 72
8
 73
4
 74
0
 40
0
 40
0
 40
0
 40
0
 40
1
 40
1
 40
1
 40
1
 10
391.063329
 20
472.235140
 30
0.0
 10
391.063329
 20
452.905035
 30
0.0
 10
375.393293
 20
437.234999
 30
0.0
 10
356.063188
 20
437.234999
 30
0.0
  0
SPLINE
  5
2ac
100
AcDbEntity
  8
compi_laser_schneiden
 62
7
100
AcDbSpline
 70
8
 71
3
 72
8
 73
4
 74
0
 40
0
 40
0
 40
0
 40
0
 40
1
 40
1
 40
1
 40
1
 10
356.063188
 20
437.234999
 30
0.0
 10
336.733082
 20
437.234999
 30
0.0
 10
321.063046
 20
452.905035
 30
0.0
 10
321.063046
 20
472.235140
 30
0.0
  0
LWPOLYLINE
  5
2ad
100
AcDbEntity
  8
compi_laser_schneiden
 62
7
100
AcDbPolyline
 90
2
 70
0
 10
257.187020
 20
429.940048
 30
0.0
 10
259.187270
 20
429.894187
 30
0.0
  0
LWPOLYLINE
  5
2ae
100
AcDbEntity
  8
compi_laser_schneiden
 62
7
100
AcDbPolyline
 90
2
 70
1
 10
321.063046
 20
472.235140
 30
0.0
 10
321.063046
 20
472.235140
 30
0.0
  0
LWPOLYLINE
  5
2af
100
AcDbEntity
  8
compi_laser_schneiden
 62
2
100
AcDbPolyline
 90
6
 70
1
 10
380.745426
 20
477.235554
 30
0.0
 10
381.745551
 20
477.235554
 30
0.0
 10
381.745551
 20
467.235362
 30
0.0
 10
380.745426
 20
467.235362
 30
0.0
 10
380.745426
 20
477.235554
 30
0.0
 10
380.745426
 20
477.235554
 30
0.0
  0
LWPOLYLINE
  5
2b0
100
AcDbEntity
  8
compi_laser_schneiden
 62
2
100
AcDbPolyline
 90
6
 70
1
 10
365.543879
 20
489.172495
 30
0.0
 10
366.544004
 20
489.172495
 30
0.0
 10
366.544004
 20
479.172304
 30
0.0
 10
365.543879
 20
479.172304
 30
0.0
 10
365.543879
 20
489.172495
 30
0.0
 10
365.543879
 20
489.172495
 30
0.0
  0
LWPOLYLINE
  5
2b1
100
AcDbEntity
  8
compi_laser_schneiden
 62
2
100
AcDbPolyline
 90
6
 70
1
 10
377.618086
 20
487.493802
 30
0.0
 10
378.559297
 20
487.156899
 30
0.0
 10
375.188859
 20
477.741260
 30
0.0
 10
374.247647
 20
478.078869
 30
0.0
 10
377.618086
 20
487.493802
 30
0.0
 10
377.618086
 20
487.493802
 30
0.0
  0
LWPOLYLINE
  5
2b2
100
AcDbEntity
  8
compi_laser_schneiden
 62
2
100
AcDbPolyline
 90
6
 70
1
 10
335.546479
 20
488.702595
 30
0.0
 10
336.546251
 20
488.702595
 30
0.0
 10
336.546251
 20
478.702404
 30
0.0
 10
335.546479
 20
478.702404
 30
0.0
 10
335.546479
 20
488.702595
 30
0.0
 10
335.546479
 20
488.702595
 30
0.0
  0
LWPOLYLINE
  5
2b3
100
AcDbEntity
  8
compi_laser_schneiden
 62
2
100
AcDbPolyline
 90
6
 70
1
 10
368.030609
 20
459.110184
 30
0.0
 10
369.030382
 20
459.110184
 30
0.0
 10
369.030382
 20
449.110345
 30
0.0
 10
368.030609
 20
449.110345
 30
0.0
 10
368.030609
 20
459.110184
 30
0.0
 10
368.030609
 20
459.110184
 30
0.0
  0
LWPOLYLINE
  5
2b4
100
AcDbEntity
  8
compi_laser_schneiden
 62
2
100
AcDbPolyline
 90
6
 70
1
 10
357.697854
 20
485.037446
 30
0.0
 10
357.196204
 20
484.172787
 30
0.0
 10
348.545740
 20
489.189640
 30
0.0
 10
349.047390
 20
490.054299
 30
0.0
 10
357.697854
 20
485.037446
 30
0.0
 10
357.697854
 20
485.037446
 30
0.0
  0
LWPOLYLINE
  5
2b5
100
AcDbEntity
  8
compi_laser_schneiden
 62
2
100
AcDbPolyline
 90
6
 70
1
 10
378.028755
 20
461.289045
 30
0.0
 10
377.527105
 20
460.424034
 30
0.0
 10
368.876288
 20
465.440887
 30
0.0
 10
369.377938
 20
466.305898
 30
0.0
 10
378.028755
 20
461.289045
 30
0.0
 10
378.028755
 20
461.289045
 30
0.0
  0
LWPOLYLINE
  5
2b6
100
AcDbEntity
  8
compi_laser_schneiden
 62
2
100
AcDbPolyline
 90
6
 70
1
 10
367.697940
 20
471.735748
 30
0.0
 10
357.697748
 20
471.735748
 30
0.0
 10
357.697748
 20
472.735873
 30
0.0
 10
367.697940
 20
472.735873
 30
0.0
 10
367.697940
 20
471.735748
 30
0.0
 10
367.697940
 20
471.735748
 30
0.0
  0
LWPOLYLINE
  5
2b7
100
AcDbEntity
  8
compi_laser_schneiden
 62
2
100
AcDbPolyline
 90
6
 70
1
 10
344.145896
 20
451.774382
 30
0.0
 10
343.438576
 20
451.067062
 30
0.0
 10
336.367499
 20
458.138140
 30
0.0
 10
337.074818
 20
458.845107
 30
0.0
 10
344.145896
 20
451.774382
 30
0.0
 10
344.145896
 20
451.774382
 30
0.0
  0
LWPOLYLINE
  5
2b8
100
AcDbEntity
  8
compi_laser_schneiden
 62
2
100
AcDbPolyline
 90
6
 70
1
 10
362.698020
 20
496.633392
 30
0.0
 10
352.697829
 20
496.633392
 30
0.0
 10
352.697829
 20
497.633517
 30
0.0
 10
362.698020
 20
497.633517
 30
0.0
 10
362.698020
 20
496.633392
 30
0.0
 10
362.698020
 20
496.633392
 30
0.0
  0
LWPOLYLINE
  5
2b9
100
AcDbEntity
  8
compi_laser_schneiden
 62
2
100
AcDbPolyline
 90
6
 70
1
 10
345.884949
 20
484.061804
 30
0.0
 10
344.975841
 20
483.645526
 30
0.0
 10
340.811299
 20
492.737315
 30
0.0
 10
341.720407
 20
493.153240
 30
0.0
 10
345.884949
 20
484.061804
 30
0.0
 10
345.884949
 20
484.061804
 30
0.0
  0
LWPOLYLINE
  5
2ba
100
AcDbEntity
  8
compi_laser_schneiden
 62
2
100
AcDbPolyline
 90
6
 70
1
 10
361.348293
 20
445.268242
 30
0.0
 10
351.348101
 20
445.268242
 30
0.0
 10
351.348101
 20
446.268367
 30
0.0
 10
361.348293
 20
446.268367
 30
0.0
 10
361.348293
 20
445.268242
 30
0.0
 10
361.348293
 20
445.268242
 30
0.0
  0
LWPOLYLINE
  5
2bb
100
AcDbEntity
  8
compi_laser_schneiden
 62
2
100
AcDbPolyline
 90
6
 70
1
 10
361.697895
 20
452.955976
 30
0.0
 10
351.697704
 20
452.955976
 30
0.0
 10
351.697704
 20
453.956101
 30
0.0
 10
361.697895
 20
453.956101
 30
0.0
 10
361.697895
 20
452.955976
 30
0.0
 10
361.697895
 20
452.955976
 30
0.0
  0
LWPOLYLINE
  5
2bc
100
AcDbEntity
  8
compi_laser_schneiden
 62
2
100
AcDbPolyline
 90
6
 70
1
 10
362.698020
 20
461.364787
 30
0.0
 10
352.697829
 20
461.364787
 30
0.0
 10
352.697829
 20
462.364559
 30
0.0
 10
362.698020
 20
462.364559
 30
0.0
 10
362.698020
 20
461.364787
 30
0.0
 10
362.698020
 20
461.364787
 30
0.0
  0
LWPOLYLINE
  5
2bd
100
AcDbEntity
  8
compi_laser_schneiden
 62
2
100
AcDbPolyline
 90
6
 70
1
 10
331.763995
 20
466.235590
 30
0.0
 10
330.764223
 20
466.235590
 30
0.0
 10
330.764223
 20
476.236134
 30
0.0
 10
331.763995
 20
476.236134
 30
0.0
 10
331.763995
 20
466.235590
 30
0.0
 10
331.763995
 20
466.235590
 30
0.0
  0
LWPOLYLINE
  5
2be
100
AcDbEntity
  8
compi_laser_schneiden
 62
2
100
AcDbPolyline
 90
6
 70
1
 10
341.848501
 20
462.316934
 30
0.0
 10
340.848376
 20
462.316934
 30
0.0
 10
340.848376
 20
472.316773
 30
0.0
 10
341.848501
 20
472.316773
 30
0.0
 10
341.848501
 20
462.316934
 30
0.0
 10
341.848501
 20
462.316934
 30
0.0
  0
LWPOLYLINE
  5
2bf
100
AcDbEntity
  8
compi_laser_schneiden
 62
2
100
AcDbPolyline
 90
6
 70
1
 10
348.665579
 20
467.235715
 30
0.0
 10
347.665454
 20
467.235715
 30
0.0
 10
347.665454
 20
477.235906
 30
0.0
 10
348.665579
 20
477.235906
 30
0.0
 10
348.665579
 20
467.235715
 30
0.0
 10
348.665579
 20
467.235715
 30
0.0
  0
LWPOLYLINE
  5
2c0
100
AcDbEntity
  8
compi_laser_schneiden
 62
2
100
AcDbPolyline
 90
2
 70
0
 10
392.932240
 20
327.584010
 30
0.0
 10
392.932240
 20
302.584060
 30
0.0
  0
LWPOLYLINE
  5
2c1
100
AcDbEntity
  8
compi_laser_schneiden
 62
2
100
AcDbPolyline
 90
2
 70
0
 10
332.219290
 20
332.583894
 30
0.0
 10
389.219360
 20
332.583894
 30
0.0
  0
LWPOLYLINE
  5
2c2
100
AcDbEntity
  8
compi_laser_schneiden
 62
2
100
AcDbPolyline
 90
6
 70
0
 10
389.219430
 20
302.583989
 30
0.0
 10
389.219430
 20
297.584070
 30
0.0
 10
332.219714
 20
297.584070
 30
0.0
 10
332.219714
 20
302.583989
 30
0.0
 10
328.550119
 20
302.583989
 30
0.0
 10
328.550119
 20
327.583939
 30
0.0
  0
LWPOLYLINE
  5
2c3
100
AcDbEntity
  8
compi_laser_schneiden
 62
2
100
AcDbPolyline
 90
2
 70
0
 10
392.932240
 20
302.584166
 30
0.0
 10
389.219607
 20
302.584166
 30
0.0
  0
LWPOLYLINE
  5
2c4
100
AcDbEntity
  8
compi_laser_schneiden
 62
2
100
AcDbPolyline
 90
2
 70
0
 10
392.932240
 20
327.584010
 30
0.0
 10
389.219607
 20
327.584010
 30
0.0
  0
LWPOLYLINE
  5
2c5
100
AcDbEntity
  8
compi_laser_schneiden
 62
2
100
AcDbPolyline
 90
2
 70
0
 10
389.219430
 20
327.584010
 30
0.0
 10
389.219430
 20
332.583929
 30
0.0
  0
LWPOLYLINE
  5
2c6
100
AcDbEntity
  8
compi_laser_schneiden
 62
2
100
AcDbPolyline
 90
2
 70
0
 10
332.219290
 20
332.584035
 30
0.0
 10
332.219290
 20
327.584116
 30
0.0
  0
LWPOLYLINE
  5
2c7
100
AcDbEntity
  8
compi_laser_schneiden
 62
2
100
AcDbPolyline
 90
2
 70
0
 10
332.219290
 20
327.584010
 30
0.0
 10
328.550402
 20
327.584010
 30
0.0
  0
LWPOLYLINE
  5
2c8
100
AcDbEntity
  8
compi_laser_schneiden
 62
2
100
AcDbPolyline
 90
3
 70
0
 10
332.219290
 20
332.583894
 30
0.0
 10
332.219290
 20
327.583975
 30
0.0
 10
328.550402
 20
327.584010
 30
0.0
  0
SPLINE
  5
2c9
100
AcDbEntity
  8
compi_laser_schneiden
 62
2
100
AcDbSpline
 70
8
 71
3
 72
8
 73
4
 74
0
 40
0
 40
0
 40
0
 40
0
 40
1
 40
1
 40
1
 40
1
 10
358.469379
 20
325.584148
 30
0.0
 10
358.469379
 20
326.826631
 30
0.0
 10
359.476912
 20
327.833812
 30
0.0
 10
360.719396
 20
327.833812
 30
0.0
  0
SPLINE
  5
2ca
100
AcDbEntity
  8
compi_laser_schneiden
 62
2
100
AcDbSpline
 70
8
 71
3
 72
8
 73
4
 74
0
 40
0
 40
0
 40
0
 40
0
 40
1
 40
1
 40
1
 40
1
 10
360.719396
 20
327.833812
 30
0.0
 10
361.962232
 20
327.833812
 30
0.0
 10
362.969412
 20
326.826631
 30
0.0
 10
362.969412
 20
325.584148
 30
0.0
  0
SPLINE
  5
2cb
100
AcDbEntity
  8
compi_laser_schneiden
 62
2
100
AcDbSpline
 70
8
 71
3
 72
8
 73
4
 74
0
 40
0
 40
0
 40
0
 40
0
 40
1
 40
1
 40
1
 40
1
 10
362.969412
 20
325.584148
 30
0.0
 10
362.969412
 20
324.341665
 30
0.0
 10
361.962232
 20
323.334131
 30
0.0
 10
360.719396
 20
323.334131
 30
0.0
  0
SPLINE
  5
2cc
100
AcDbEntity
  8
compi_laser_schneiden
 62
2
100
AcDbSpline
 70
8
 71
3
 72
8
 73
4
 74
0
 40
0
 40
0
 40
0
 40
0
 40
1
 40
1
 40
1
 40
1
 10
360.719396
 20
323.334131
 30
0.0
 10
359.476912
 20
323.334131
 30
0.0
 10
358.469379
 20
324.341665
 30
0.0
 10
358.469379
 20
325.584148
 30
0.0
  0
LWPOLYLINE
  5
2cd
100
AcDbEntity
  8
compi_laser_schneiden
 62
2
100
AcDbPolyline
 90
2
 70
0
 10
360.719537
 20
297.583964
 30
0.0
 10
360.719537
 20
304.624350
 30
0.0
  0
LWPOLYLINE
  5
2ce
100
AcDbEntity
  8
compi_laser_schneiden
 62
2
100
AcDbPolyline
 90
2
 70
1
 10
358.469379
 20
325.584148
 30
0.0
 10
358.469379
 20
325.584148
 30
0.0
  0
LWPOLYLINE
  5
2cf
100
AcDbEntity
  8
compi_laser_schneiden
 62
2
100
AcDbPolyline
 90
6
 70
1
 10
373.219265
 20
317.584206
 30
0.0
 10
376.219287
 20
317.584206
 30
0.0
 10
376.219287
 20
312.584287
 30
0.0
 10
373.219265
 20
312.584287
 30
0.0
 10
373.219265
 20
317.584206
 30
0.0
 10
373.219265
 20
317.584206
 30
0.0
  0
LWPOLYLINE
  5
2d0
100
AcDbEntity
  8
compi_laser_schneiden
 62
2
100
AcDbPolyline
 90
6
 70
1
 10
345.219293
 20
317.584206
 30
0.0
 10
348.219315
 20
317.584206
 30
0.0
 10
348.219315
 20
312.584287
 30
0.0
 10
345.219293
 20
312.584287
 30
0.0
 10
345.219293
 20
317.584206
 30
0.0
 10
345.219293
 20
317.584206
 30
0.0
  0
LWPOLYLINE
  5
2d1
100
AcDbEntity
  8
compi_laser_schneiden
 62
2
100
AcDbPolyline
 90
6
 70
1
 10
335.719340
 20
339.398220
 30
0.0
 10
385.719240
 20
339.398220
 30
0.0
 10
385.719240
 20
334.398301
 30
0.0
 10
335.719340
 20
334.398301
 30
0.0
 10
335.719340
 20
339.398220
 30
0.0
 10
335.719340
 20
339.398220
 30
0.0
  0
LWPOLYLINE
  5
2d2
100
AcDbEntity
  8
compi_laser_schneiden
 62
7
100
AcDbPolyline
 90
4
 70
0
 10
337.480654
 20
355.920779
 30
0.0
 10
337.480654
 20
364.420960
 30
0.0
 10
384.480884
 20
364.420607
 30
0.0
 10
384.480884
 20
357.385865
 30
0.0
  0
LWPOLYLINE
  5
2d3
100
AcDbEntity
  8
compi_laser_schneiden
 62
7
100
AcDbPolyline
 90
4
 70
0
 10
384.481060
 20
351.466289
 30
0.0
 10
384.481060
 20
344.420612
 30
0.0
 10
337.480830
 20
344.420612
 30
0.0
 10
337.480830
 20
352.920792
 30
0.0
  0
LWPOLYLINE
  5
2d4
100
AcDbEntity
  8
compi_laser_schneiden
 62
7
100
AcDbPolyline
 90
4
 70
0
 10
337.480654
 20
352.920792
 30
0.0
 10
334.480631
 20
352.920792
 30
0.0
 10
334.480631
 20
355.920814
 30
0.0
 10
337.480654
 20
355.920814
 30
0.0
  0
LWPOLYLINE
  5
2d5
100
AcDbEntity
  8
compi_laser_schneiden
 62
7
100
AcDbPolyline
 90
6
 70
1
 10
383.437120
 20
352.920545
 30
0.0
 10
382.436643
 20
352.920545
 30
0.0
 10
382.436643
 20
355.920567
 30
0.0
 10
383.437120
 20
355.920567
 30
0.0
 10
383.437120
 20
352.920545
 30
0.0
 10
383.437120
 20
352.920545
 30
0.0
  0
LWPOLYLINE
  5
2d6
100
AcDbEntity
  8
compi_laser_schneiden
 62
7
100
AcDbPolyline
 90
2
 70
0
 10
384.436963
 20
357.375317
 30
0.0
 10
387.223202
 20
357.385900
 30
0.0
  0
SPLINE
  5
2d7
100
AcDbEntity
  8
compi_laser_schneiden
 62
7
100
AcDbSpline
 70
8
 71
3
 72
8
 73
4
 74
0
 40
0
 40
0
 40
0
 40
0
 40
1
 40
1
 40
1
 40
1
 10
387.223343
 20
357.380820
 30
0.0
 10
388.899743
 20
357.380820
 30
0.0
 10
390.258996
 20
356.055787
 30
0.0
 10
390.258996
 20
354.420309
 30
0.0
  0
SPLINE
  5
2d8
100
AcDbEntity
  8
compi_laser_schneiden
 62
7
100
AcDbSpline
 70
8
 71
3
 72
8
 73
4
 74
0
 40
0
 40
0
 40
0
 40
0
 40
1
 40
1
 40
1
 40
1
 10
390.258996
 20
354.420309
 30
0.0
 10
390.258996
 20
352.785184
 30
0.0
 10
388.899743
 20
351.460151
 30
0.0
 10
387.223343
 20
351.460151
 30
0.0
  0
SPLINE
  5
2d9
100
AcDbEntity
  8
compi_laser_schneiden
 62
7
100
AcDbSpline
 70
8
 71
3
 72
8
 73
4
 74
0
 40
0
 40
0
 40
0
 40
0
 40
1
 40
1
 40
1
 40
1
 10
386.736228
 20
355.364060
 30
0.0
 10
387.257633
 20
355.364060
 30
0.0
 10
387.679203
 20
354.941785
 30
0.0
 10
387.679203
 20
354.421438
 30
0.0
  0
SPLINE
  5
2da
100
AcDbEntity
  8
compi_laser_schneiden
 62
7
100
AcDbSpline
 70
8
 71
3
 72
8
 73
4
 74
0
 40
0
 40
0
 40
0
 40
0
 40
1
 40
1
 40
1
 40
1
 10
387.679203
 20
354.421438
 30
0.0
 10
387.679203
 20
353.900385
 30
0.0
 10
387.257633
 20
353.477758
 30
0.0
 10
386.736228
 20
353.477758
 30
0.0
  0
SPLINE
  5
2db
100
AcDbEntity
  8
compi_laser_schneiden
 62
7
100
AcDbSpline
 70
8
 71
3
 72
8
 73
4
 74
0
 40
0
 40
0
 40
0
 40
0
 40
1
 40
1
 40
1
 40
1
 10
386.736228
 20
353.477758
 30
0.0
 10
386.215175
 20
353.477758
 30
0.0
 10
385.793605
 20
353.900385
 30
0.0
 10
385.793605
 20
354.421438
 30
0.0
  0
SPLINE
  5
2dc
100
AcDbEntity
  8
compi_laser_schneiden
 62
7
100
AcDbSpline
 70
8
 71
3
 72
8
 73
4
 74
0
 40
0
 40
0
 40
0
 40
0
 40
1
 40
1
 40
1
 40
1
 10
385.793605
 20
354.421438
 30
0.0
 10
385.793605
 20
354.941785
 30
0.0
 10
386.215175
 20
355.364060
 30
0.0
 10
386.736228
 20
355.364060
 30
0.0
  0
LWPOLYLINE
  5
2dd
100
AcDbEntity
  8
compi_laser_schneiden
 62
7
100
AcDbPolyline
 90
2
 70
0
 10
387.223343
 20
351.476943
 30
0.0
 10
384.437104
 20
351.466360
 30
0.0
  0
SPLINE
  5
2de
100
AcDbEntity
  8
compi_laser_schneiden
 62
7
100
AcDbSpline
 70
8
 71
3
 72
8
 73
4
 74
0
 40
0
 40
0
 40
0
 40
0
 40
1
 40
1
 40
1
 40
1
 10
268.328130
 20
305.434645
 30
0.0
 10
268.849183
 20
305.434645
 30
0.0
 10
269.270753
 20
305.012370
 30
0.0
 10
269.270753
 20
304.492023
 30
0.0
  0
SPLINE
  5
2df
100
AcDbEntity
  8
compi_laser_schneiden
 62
7
100
AcDbSpline
 70
8
 71
3
 72
8
 73
4
 74
0
 40
0
 40
0
 40
0
 40
0
 40
1
 40
1
 40
1
 40
1
 10
269.270753
 20
304.492023
 30
0.0
 10
269.270753
 20
303.970970
 30
0.0
 10
268.849183
 20
303.548343
 30
0.0
 10
268.328130
 20
303.548343
 30
0.0
  0
SPLINE
  5
2e0
100
AcDbEntity
  8
compi_laser_schneiden
 62
7
100
AcDbSpline
 70
8
 71
3
 72
8
 73
4
 74
0
 40
0
 40
0
 40
0
 40
0
 40
1
 40
1
 40
1
 40
1
 10
268.328130
 20
303.548343
 30
0.0
 10
267.807078
 20
303.548343
 30
0.0
 10
267.385508
 20
303.970970
 30
0.0
 10
267.385508
 20
304.492023
 30
0.0
  0
SPLINE
  5
2e1
100
AcDbEntity
  8
compi_laser_schneiden
 62
7
100
AcDbSpline
 70
8
 71
3
 72
8
 73
4
 74
0
 40
0
 40
0
 40
0
 40
0
 40
1
 40
1
 40
1
 40
1
 10
267.385508
 20
304.492023
 30
0.0
 10
267.385508
 20
305.012370
 30
0.0
 10
267.807078
 20
305.434645
 30
0.0
 10
268.328130
 20
305.434645
 30
0.0
  0
LWPOLYLINE
  5
2e2
100
AcDbEntity
  8
compi_laser_schneiden
 62
7
100
AcDbPolyline
 90
2
 70
1
 10
386.736228
 20
355.364060
 30
0.0
 10
386.736228
 20
355.364060
 30
0.0
  0
SPLINE
  5
2e3
100
AcDbEntity
  8
compi_laser_schneiden
 62
7
100
AcDbSpline
 70
8
 71
3
 72
8
 73
4
 74
0
 40
0
 40
0
 40
0
 40
0
 40
1
 40
1
 40
1
 40
1
 10
278.482027
 20
305.434645
 30
0.0
 10
279.003080
 20
305.434645
 30
0.0
 10
279.424650
 20
305.012370
 30
0.0
 10
279.424650
 20
304.492023
 30
0.0
  0
SPLINE
  5
2e4
100
AcDbEntity
  8
compi_laser_schneiden
 62
7
100
AcDbSpline
 70
8
 71
3
 72
8
 73
4
 74
0
 40
0
 40
0
 40
0
 40
0
 40
1
 40
1
 40
1
 40
1
 10
279.424650
 20
304.492023
 30
0.0
 10
279.424650
 20
303.970970
 30
0.0
 10
279.003080
 20
303.548343
 30
0.0
 10
278.482027
 20
303.548343
 30
0.0
  0
SPLINE
  5
2e5
100
AcDbEntity
  8
compi_laser_schneiden
 62
7
100
AcDbSpline
 70
8
 71
3
 72
8
 73
4
 74
0
 40
0
 40
0
 40
0
 40
0
 40
1
 40
1
 40
1
 40
1
 10
278.482027
 20
303.548343
 30
0.0
 10
277.960975
 20
303.548343
 30
0.0
 10
277.539405
 20
303.970970
 30
0.0
 10
277.539405
 20
304.492023
 30
0.0
  0
SPLINE
  5
2e6
100
AcDbEntity
  8
compi_laser_schneiden
 62
7
100
AcDbSpline
 70
8
 71
3
 72
8
 73
4
 74
0
 40
0
 40
0
 40
0
 40
0
 40
1
 40
1
 40
1
 40
1
 10
277.539405
 20
304.492023
 30
0.0
 10
277.539405
 20
305.012370
 30
0.0
 10
277.960975
 20
305.434645
 30
0.0
 10
278.482027
 20
305.434645
 30
0.0
  0
LWPOLYLINE
  5
2e7
100
AcDbEntity
  8
compi_laser_schneiden
 62
7
100
AcDbPolyline
 90
2
 70
1
 10
268.328130
 20
305.434645
 30
0.0
 10
268.328130
 20
305.434645
 30
0.0
  0
LWPOLYLINE
  5
2e8
100
AcDbEntity
  8
compi_laser_schneiden
 62
7
100
AcDbPolyline
 90
2
 70
1
 10
278.482027
 20
305.434645
 30
0.0
 10
278.482027
 20
305.434645
 30
0.0
  0
LWPOLYLINE
  5
2e9
100
AcDbEntity
  8
compi_laser_schneiden
 62
7
100
AcDbPolyline
 90
6
 70
1
 10
371.480635
 20
359.420299
 30
0.0
 10
371.480635
 20
349.420460
 30
0.0
 10
352.481082
 20
349.420460
 30
0.0
 10
352.481082
 20
359.420299
 30
0.0
 10
371.480635
 20
359.420299
 30
0.0
 10
371.480635
 20
359.420299
 30
0.0
  0
LWPOLYLINE
  5
2ea
100
AcDbEntity
  8
compi_laser_schneiden
 62
7
100
AcDbPolyline
 90
2
 70
0
 10
487.435339
 20
483.676288
 30
0.0
 10
487.434634
 20
489.401166
 30
0.0
  0
LWPOLYLINE
  5
2eb
100
AcDbEntity
  8
compi_laser_schneiden
 62
7
100
AcDbPolyline
 90
2
 70
0
 10
487.434634
 20
431.279827
 30
0.0
 10
487.434634
 20
478.846972
 30
0.0
  0
LWPOLYLINE
  5
2ec
100
AcDbEntity
  8
compi_laser_schneiden
 62
7
100
AcDbPolyline
 90
2
 70
0
 10
547.385513
 20
342.991015
 30
0.0
 10
547.385513
 20
316.873465
 30
0.0
  0
LWPOLYLINE
  5
2ed
100
AcDbEntity
  8
compi_laser_schneiden
 62
7
100
AcDbPolyline
 90
2
 70
0
 10
547.385513
 20
372.227473
 30
0.0
 10
547.385513
 20
343.019590
 30
0.0
  0
LWPOLYLINE
  5
2ee
100
AcDbEntity
  8
compi_laser_schneiden
 62
7
100
AcDbPolyline
 90
2
 70
0
 10
485.435089
 20
343.120202
 30
0.0
 10
485.434384
 20
372.244477
 30
0.0
  0
SPLINE
  5
2ef
100
AcDbEntity
  8
compi_laser_schneiden
 62
7
100
AcDbSpline
 70
8
 71
3
 72
8
 73
4
 74
0
 40
0
 40
0
 40
0
 40
0
 40
1
 40
1
 40
1
 40
1
 10
492.540951
 20
365.424083
 30
0.0
 10
492.540951
 20
365.424083
 30
0.0
 10
508.562354
 20
366.811205
 30
0.0
 10
516.406367
 20
366.811205
 30
0.0
  0
SPLINE
  5
2f0
100
AcDbEntity
  8
compi_laser_schneiden
 62
7
100
AcDbSpline
 70
8
 71
3
 72
8
 73
4
 74
0
 40
0
 40
0
 40
0
 40
0
 40
1
 40
1
 40
1
 40
1
 10
516.406509
 20
366.811064
 30
0.0
 10
524.250875
 20
366.811064
 30
0.0
 10
539.605528
 20
365.423942
 30
0.0
 10
539.605528
 20
365.423942
 30
0.0
  0
SPLINE
  5
2f1
100
AcDbEntity
  8
compi_laser_schneiden
 62
7
100
AcDbSpline
 70
8
 71
3
 72
8
 73
4
 74
0
 40
0
 40
0
 40
0
 40
0
 40
1
 40
1
 40
1
 40
1
 10
539.605775
 20
365.424083
 30
0.0
 10
539.605775
 20
365.424083
 30
0.0
 10
540.838028
 20
352.850730
 30
0.0
 10
540.838028
 20
345.439928
 30
0.0
  0
SPLINE
  5
2f2
100
AcDbEntity
  8
compi_laser_schneiden
 62
7
100
AcDbSpline
 70
8
 71
3
 72
8
 73
4
 74
0
 40
0
 40
0
 40
0
 40
0
 40
1
 40
1
 40
1
 40
1
 10
540.838098
 20
345.439787
 30
0.0
 10
540.838098
 20
338.027925
 30
0.0
 10
539.605845
 20
325.455631
 30
0.0
 10
539.605845
 20
325.455631
 30
0.0
  0
LWPOLYLINE
  5
2f3
100
AcDbEntity
  8
compi_laser_schneiden
 62
7
100
AcDbPolyline
 90
2
 70
0
 10
485.434419
 20
316.704237
 30
0.0
 10
485.435124
 20
343.120237
 30
0.0
  0
SPLINE
  5
2f4
100
AcDbEntity
  8
compi_laser_schneiden
 62
7
100
AcDbSpline
 70
8
 71
3
 72
8
 73
4
 74
0
 40
0
 40
0
 40
0
 40
0
 40
1
 40
1
 40
1
 40
1
 10
539.605775
 20
325.454784
 30
0.0
 10
539.605775
 20
325.454784
 30
0.0
 10
524.251122
 20
324.067662
 30
0.0
 10
516.407108
 20
324.067662
 30
0.0
  0
SPLINE
  5
2f5
100
AcDbEntity
  8
compi_laser_schneiden
 62
7
100
AcDbSpline
 70
8
 71
3
 72
8
 73
4
 74
0
 40
0
 40
0
 40
0
 40
0
 40
1
 40
1
 40
1
 40
1
 10
516.406509
 20
324.067768
 30
0.0
 10
508.562495
 20
324.067768
 30
0.0
 10
492.541092
 20
325.454890
 30
0.0
 10
492.541092
 20
325.454890
 30
0.0
  0
SPLINE
  5
2f6
100
AcDbEntity
  8
compi_laser_schneiden
 62
7
100
AcDbSpline
 70
8
 71
3
 72
8
 73
4
 74
0
 40
0
 40
0
 40
0
 40
0
 40
1
 40
1
 40
1
 40
1
 10
492.540951
 20
325.454784
 30
0.0
 10
492.540951
 20
325.454784
 30
0.0
 10
491.308345
 20
338.778495
 30
0.0
 10
491.308345
 20
345.438940
 30
0.0
  0
SPLINE
  5
2f7
100
AcDbEntity
  8
compi_laser_schneiden
 62
7
100
AcDbSpline
 70
8
 71
3
 72
8
 73
4
 74
0
 40
0
 40
0
 40
0
 40
0
 40
1
 40
1
 40
1
 40
1
 10
491.308310
 20
345.439787
 30
0.0
 10
491.308310
 20
352.101289
 30
0.0
 10
492.540915
 20
365.423942
 30
0.0
 10
492.540915
 20
365.423942
 30
0.0
  0
LWPOLYLINE
  5
2f8
100
AcDbEntity
  8
compi_laser_schneiden
 62
7
100
AcDbPolyline
 90
2
 70
0
 10
487.434634
 20
489.351742
 30
0.0
 10
487.435339
 20
497.675886
 30
0.0
  0
LWPOLYLINE
  5
2f9
100
AcDbEntity
  8
compi_laser_schneiden
 62
7
100
AcDbPolyline
 90
2
 70
0
 10
545.385968
 20
316.788445
 30
0.0
 10
545.385263
 20
311.918348
 30
0.0
  0
LWPOLYLINE
  5
2fa
100
AcDbEntity
  8
compi_laser_schneiden
 62
7
100
AcDbPolyline
 90
2
 70
0
 10
545.385263
 20
307.089138
 30
0.0
 10
545.385263
 20
303.770205
 30
0.0
  0
LWPOLYLINE
  5
2fb
100
AcDbEntity
  8
compi_laser_schneiden
 62
7
100
AcDbPolyline
 90
2
 70
0
 10
487.436715
 20
303.702612
 30
0.0
 10
487.436009
 20
307.091749
 30
0.0
  0
LWPOLYLINE
  5
2fc
100
AcDbEntity
  8
compi_laser_schneiden
 62
7
100
AcDbPolyline
 90
2
 70
0
 10
487.435339
 20
311.912280
 30
0.0
 10
487.434634
 20
316.788375
 30
0.0
  0
LWPOLYLINE
  5
2fd
100
AcDbEntity
  8
compi_laser_schneiden
 62
7
100
AcDbPolyline
 90
4
 70
0
 10
487.435339
 20
307.083635
 30
0.0
 10
484.536564
 20
307.083635
 30
0.0
 10
484.536564
 20
311.912457
 30
0.0
 10
487.435339
 20
311.912457
 30
0.0
  0
LWPOLYLINE
  5
2fe
100
AcDbEntity
  8
compi_laser_schneiden
 62
7
100
AcDbPolyline
 90
4
 70
0
 10
545.385263
 20
311.918489
 30
0.0
 10
548.283332
 20
311.918489
 30
0.0
 10
548.283332
 20
307.089314
 30
0.0
 10
545.385263
 20
307.089314
 30
0.0
  0
LWPOLYLINE
  5
2ff
100
AcDbEntity
  8
compi_laser_schneiden
 62
7
100
AcDbPolyline
 90
2
 70
0
 10
429.647975
 20
363.998155
 30
0.0
 10
424.818800
 20
372.362869
 30
0.0
  0
LWPOLYLINE
  5
300
100
AcDbEntity
  8
compi_laser_schneiden
 62
7
100
AcDbPolyline
 90
4
 70
1
 10
486.468622
 20
372.362834
 30
0.0
 10
458.058369
 20
368.637148
 30
0.0
 10
486.468622
 20
372.362834
 30
0.0
 10
486.468622
 20
372.362834
 30
0.0
  0
LWPOLYLINE
  5
301
100
AcDbEntity
  8
compi_laser_schneiden
 62
7
100
AcDbPolyline
 90
4
 70
1
 10
458.058299
 20
368.637324
 30
0.0
 10
429.648046
 20
363.998297
 30
0.0
 10
458.058299
 20
368.637324
 30
0.0
 10
458.058299
 20
368.637324
 30
0.0
  0
LWPOLYLINE
  5
302
100
AcDbEntity
  8
compi_laser_schneiden
 62
7
100
AcDbPolyline
 90
4
 70
0
 10
486.468622
 20
432.245486
 30
0.0
 10
443.624819
 20
431.999953
 30
0.0
 10
424.818589
 20
432.245486
 30
0.0
 10
405.506828
 20
432.245486
 30
0.0
  0
LWPOLYLINE
  5
303
100
AcDbEntity
  8
compi_laser_schneiden
 62
7
100
AcDbPolyline
 90
3
 70
0
 10
405.337318
 20
432.245486
 30
0.0
 10
405.337318
 20
372.362869
 30
0.0
 10
424.818765
 20
372.362869
 30
0.0
  0
LWPOLYLINE
  5
304
100
AcDbEntity
  8
compi_laser_schneiden
 62
7
100
AcDbPolyline
 90
6
 70
1
 10
412.268237
 20
422.343331
 30
0.0
 10
413.230968
 20
422.343331
 30
0.0
 10
413.230968
 20
383.712401
 30
0.0
 10
412.268237
 20
383.712401
 30
0.0
 10
412.268237
 20
422.343331
 30
0.0
 10
412.268237
 20
422.343331
 30
0.0
  0
LWPOLYLINE
  5
305
100
AcDbEntity
  8
compi_laser_schneiden
 62
7
100
AcDbPolyline
 90
6
 70
1
 10
454.635437
 20
425.303137
 30
0.0
 10
480.643273
 20
425.303137
 30
0.0
 10
480.643273
 20
424.337584
 30
0.0
 10
454.635437
 20
424.337584
 30
0.0
 10
454.635437
 20
425.303137
 30
0.0
 10
454.635437
 20
425.303137
 30
0.0
  0
LWPOLYLINE
  5
306
100
AcDbEntity
  8
compi_laser_schneiden
 62
7
100
AcDbPolyline
 90
6
 70
1
 10
427.608497
 20
373.736057
 30
0.0
 10
430.149555
 20
369.195807
 30
0.0
 10
429.267610
 20
368.672990
 30
0.0
 10
426.726552
 20
373.213593
 30
0.0
 10
427.608497
 20
373.736057
 30
0.0
 10
427.608497
 20
373.736057
 30
0.0
  0
LWPOLYLINE
  5
307
100
AcDbEntity
  8
compi_laser_schneiden
 62
7
100
AcDbPolyline
 90
2
 70
0
 10
487.435339
 20
296.932983
 30
0.0
 10
487.434634
 20
303.767347
 30
0.0
  0
LWPOLYLINE
  5
308
100
AcDbEntity
  8
compi_laser_schneiden
 62
7
100
AcDbPolyline
 90
4
 70
0
 10
545.385263
 20
296.284648
 30
0.0
 10
545.385263
 20
293.383757
 30
0.0
 10
487.434457
 20
293.383757
 30
0.0
 10
487.435163
 20
296.933054
 30
0.0
  0
LWPOLYLINE
  5
309
100
AcDbEntity
  8
compi_laser_schneiden
 62
7
100
AcDbPolyline
 90
2
 70
0
 10
545.385263
 20
303.770134
 30
0.0
 10
545.385263
 20
296.284542
 30
0.0
  0
LWPOLYLINE
  5
30a
100
AcDbEntity
  8
compi_laser_schneiden
 62
7
100
AcDbPolyline
 90
6
 70
1
 10
435.155401
 20
430.287534
 30
0.0
 10
440.128862
 20
430.287534
 30
0.0
 10
440.128862
 20
429.321629
 30
0.0
 10
435.155401
 20
429.321629
 30
0.0
 10
435.155401
 20
430.287534
 30
0.0
 10
435.155401
 20
430.287534
 30
0.0
  0
LWPOLYLINE
  5
30b
100
AcDbEntity
  8
compi_laser_schneiden
 62
7
100
AcDbPolyline
 90
2
 70
0
 10
603.172626
 20
363.998155
 30
0.0
 10
608.001801
 20
372.362869
 30
0.0
  0
LWPOLYLINE
  5
30c
100
AcDbEntity
  8
compi_laser_schneiden
 62
7
100
AcDbPolyline
 90
4
 70
1
 10
546.351274
 20
372.362834
 30
0.0
 10
574.761527
 20
368.637148
 30
0.0
 10
546.351274
 20
372.362834
 30
0.0
 10
546.351274
 20
372.362834
 30
0.0
  0
LWPOLYLINE
  5
30d
100
AcDbEntity
  8
compi_laser_schneiden
 62
7
100
AcDbPolyline
 90
4
 70
1
 10
574.762303
 20
368.637324
 30
0.0
 10
603.172556
 20
363.998297
 30
0.0
 10
574.762303
 20
368.637324
 30
0.0
 10
574.762303
 20
368.637324
 30
0.0
  0
LWPOLYLINE
  5
30e
100
AcDbEntity
  8
compi_laser_schneiden
 62
7
100
AcDbPolyline
 90
4
 70
0
 10
546.351274
 20
432.245486
 30
0.0
 10
589.195077
 20
431.999953
 30
0.0
 10
608.002013
 20
432.245486
 30
0.0
 10
627.313774
 20
432.245486
 30
0.0
  0
LWPOLYLINE
  5
30f
100
AcDbEntity
  8
compi_laser_schneiden
 62
7
100
AcDbPolyline
 90
3
 70
0
 10
627.483284
 20
432.245486
 30
0.0
 10
627.483284
 20
372.362869
 30
0.0
 10
608.001837
 20
372.362869
 30
0.0
  0
LWPOLYLINE
  5
310
100
AcDbEntity
  8
compi_laser_schneiden
 62
7
100
AcDbPolyline
 90
6
 70
1
 10
619.589740
 20
422.343331
 30
0.0
 10
620.552470
 20
422.343331
 30
0.0
 10
620.552470
 20
383.712401
 30
0.0
 10
619.589740
 20
383.712401
 30
0.0
 10
619.589740
 20
422.343331
 30
0.0
 10
619.589740
 20
422.343331
 30
0.0
  0
LWPOLYLINE
  5
311
100
AcDbEntity
  8
compi_laser_schneiden
 62
7
100
AcDbPolyline
 90
6
 70
1
 10
552.013745
 20
425.303137
 30
0.0
 10
578.107659
 20
425.303137
 30
0.0
 10
578.107659
 20
424.337584
 30
0.0
 10
552.013745
 20
424.337584
 30
0.0
 10
552.013745
 20
425.303137
 30
0.0
 10
552.013745
 20
425.303137
 30
0.0
  0
LWPOLYLINE
  5
312
100
AcDbEntity
  8
compi_laser_schneiden
 62
7
100
AcDbPolyline
 90
6
 70
1
 10
606.153316
 20
373.047399
 30
0.0
 10
603.482083
 20
368.428480
 30
0.0
 10
602.553925
 20
368.960469
 30
0.0
 10
605.225864
 20
373.579741
 30
0.0
 10
606.153316
 20
373.047399
 30
0.0
 10
606.153316
 20
373.047399
 30
0.0
  0
LWPOLYLINE
  5
313
100
AcDbEntity
  8
compi_laser_schneiden
 62
7
100
AcDbPolyline
 90
6
 70
1
 10
593.225245
 20
430.286476
 30
0.0
 10
598.568418
 20
430.286476
 30
0.0
 10
598.568418
 20
429.320570
 30
0.0
 10
593.225245
 20
429.320570
 30
0.0
 10
593.225245
 20
430.286476
 30
0.0
 10
593.225245
 20
430.286476
 30
0.0
  0
LWPOLYLINE
  5
314
100
AcDbEntity
  8
compi_laser_schneiden
 62
7
100
AcDbPolyline
 90
4
 70
0
 10
487.435339
 20
478.846972
 30
0.0
 10
484.536564
 20
478.846972
 30
0.0
 10
484.536564
 20
483.676147
 30
0.0
 10
487.435339
 20
483.676147
 30
0.0
  0
LWPOLYLINE
  5
315
100
AcDbEntity
  8
compi_laser_schneiden
 62
7
100
AcDbPolyline
 90
6
 70
1
 10
506.762234
 20
431.293304
 30
0.0
 10
527.033198
 20
431.293304
 30
0.0
 10
527.033198
 20
424.303012
 30
0.0
 10
506.762234
 20
424.303012
 30
0.0
 10
506.762234
 20
431.293304
 30
0.0
 10
506.762234
 20
431.293304
 30
0.0
  0
LWPOLYLINE
  5
316
100
AcDbEntity
  8
compi_laser_schneiden
 62
7
100
AcDbPolyline
 90
2
 70
0
 10
545.385968
 20
483.676288
 30
0.0
 10
545.386674
 20
489.401166
 30
0.0
  0
LWPOLYLINE
  5
317
100
AcDbEntity
  8
compi_laser_schneiden
 62
7
100
AcDbPolyline
 90
2
 70
0
 10
545.386639
 20
431.279827
 30
0.0
 10
545.386639
 20
478.846972
 30
0.0
  0
LWPOLYLINE
  5
318
100
AcDbEntity
  8
compi_laser_schneiden
 62
7
100
AcDbPolyline
 90
2
 70
0
 10
545.386639
 20
489.351742
 30
0.0
 10
545.385933
 20
497.675886
 30
0.0
  0
LWPOLYLINE
  5
319
100
AcDbEntity
  8
compi_laser_schneiden
 62
7
100
AcDbPolyline
 90
5
 70
0
 10
545.385968
 20
497.675780
 30
0.0
 10
545.385615
 20
504.792719
 30
0.0
 10
539.037379
 20
504.792719
 30
0.0
 10
487.434810
 20
504.792719
 30
0.0
 10
487.435163
 20
497.543136
 30
0.0
  0
LWPOLYLINE
  5
31a
100
AcDbEntity
  8
compi_laser_schneiden
 62
7
100
AcDbPolyline
 90
4
 70
0
 10
545.385968
 20
478.846972
 30
0.0
 10
548.284743
 20
478.846972
 30
0.0
 10
548.284743
 20
483.676147
 30
0.0
 10
545.385968
 20
483.676147
 30
0.0
  0
LWPOLYLINE
  5
31b
100
AcDbEntity
  8
compi_laser_schneiden
 62
7
100
AcDbPolyline
 90
2
 70
0
 10
487.444617
 20
373.328845
 30
0.0
 10
486.468481
 20
373.328845
 30
0.0
  0
LWPOLYLINE
  5
31c
100
AcDbEntity
  8
compi_laser_schneiden
 62
7
100
AcDbPolyline
 90
2
 70
0
 10
545.385263
 20
373.328845
 30
0.0
 10
546.351168
 20
373.328845
 30
0.0
  0
LWPOLYLINE
  5
31d
100
AcDbEntity
  8
compi_laser_schneiden
 62
7
100
AcDbPolyline
 90
2
 70
0
 10
487.435339
 20
431.279827
 30
0.0
 10
486.638767
 20
431.279827
 30
0.0
  0
LWPOLYLINE
  5
31e
100
AcDbEntity
  8
compi_laser_schneiden
 62
7
100
AcDbPolyline
 90
2
 70
0
 10
545.553044
 20
431.279827
 30
0.0
 10
546.522124
 20
431.279827
 30
0.0
  0
LWPOLYLINE
  5
31f
100
AcDbEntity
  8
compi_laser_schneiden
 62
7
100
AcDbPolyline
 90
2
 70
0
 10
487.444617
 20
373.328845
 30
0.0
 10
487.444617
 20
372.328720
 30
0.0
  0
LWPOLYLINE
  5
320
100
AcDbEntity
  8
compi_laser_schneiden
 62
7
100
AcDbPolyline
 90
2
 70
0
 10
545.385263
 20
373.328845
 30
0.0
 10
545.385263
 20
372.272982
 30
0.0
  0
LWPOLYLINE
  5
321
100
AcDbEntity
  8
compi_laser_schneiden
 62
7
100
AcDbPolyline
 90
2
 70
0
 10
485.434419
 20
372.244336
 30
0.0
 10
487.444547
 20
372.328650
 30
0.0
  0
LWPOLYLINE
  5
322
100
AcDbEntity
  8
compi_laser_schneiden
 62
7
100
AcDbPolyline
 90
2
 70
0
 10
485.434419
 20
316.704237
 30
0.0
 10
487.434669
 20
316.788551
 30
0.0
  0
LWPOLYLINE
  5
323
100
AcDbEntity
  8
compi_laser_schneiden
 62
7
100
AcDbPolyline
 90
2
 70
0
 10
545.385968
 20
316.788445
 30
0.0
 10
547.385513
 20
316.873465
 30
0.0
  0
SPLINE
  5
324
100
AcDbEntity
  8
compi_laser_schneiden
 62
7
100
AcDbSpline
 70
8
 71
3
 72
8
 73
4
 74
0
 40
0
 40
0
 40
0
 40
0
 40
1
 40
1
 40
1
 40
1
 10
483.509310
 20
329.932346
 30
0.0
 10
483.509310
 20
310.602240
 30
0.0
 10
467.838922
 20
294.932204
 30
0.0
 10
448.509169
 20
294.932204
 30
0.0
  0
SPLINE
  5
325
100
AcDbEntity
  8
compi_laser_schneiden
 62
7
100
AcDbSpline
 70
8
 71
3
 72
8
 73
4
 74
0
 40
0
 40
0
 40
0
 40
0
 40
1
 40
1
 40
1
 40
1
 10
448.509169
 20
294.932204
 30
0.0
 10
429.179416
 20
294.932204
 30
0.0
 10
413.509027
 20
310.602240
 30
0.0
 10
413.509027
 20
329.932346
 30
0.0
  0
SPLINE
  5
326
100
AcDbEntity
  8
compi_laser_schneiden
 62
7
100
AcDbSpline
 70
8
 71
3
 72
8
 73
4
 74
0
 40
0
 40
0
 40
0
 40
0
 40
1
 40
1
 40
1
 40
1
 10
413.509027
 20
329.932346
 30
0.0
 10
413.509027
 20
349.262099
 30
0.0
 10
429.179416
 20
364.932135
 30
0.0
 10
448.509169
 20
364.932135
 30
0.0
  0
SPLINE
  5
327
100
AcDbEntity
  8
compi_laser_schneiden
 62
7
100
AcDbSpline
 70
8
 71
3
 72
8
 73
4
 74
0
 40
0
 40
0
 40
0
 40
0
 40
1
 40
1
 40
1
 40
1
 10
448.509169
 20
364.932135
 30
0.0
 10
467.838922
 20
364.932135
 30
0.0
 10
483.509310
 20
349.262099
 30
0.0
 10
483.509310
 20
329.932346
 30
0.0
  0
LWPOLYLINE
  5
328
100
AcDbEntity
  8
compi_laser_schneiden
 62
7
100
AcDbPolyline
 90
2
 70
0
 10
547.385513
 20
372.227473
 30
0.0
 10
545.385263
 20
372.272982
 30
0.0
  0
LWPOLYLINE
  5
329
100
AcDbEntity
  8
compi_laser_schneiden
 62
7
100
AcDbPolyline
 90
2
 70
1
 10
483.509310
 20
329.932346
 30
0.0
 10
483.509310
 20
329.932346
 30
0.0
  0
LWPOLYLINE
  5
32a
100
AcDbEntity
  8
compi_laser_schneiden
 62
2
100
AcDbPolyline
 90
6
 70
1
 10
423.826295
 20
324.931509
 30
0.0
 10
422.826523
 20
324.931509
 30
0.0
 10
422.826523
 20
334.932054
 30
0.0
 10
423.826295
 20
334.932054
 30
0.0
 10
423.826295
 20
324.931509
 30
0.0
 10
423.826295
 20
324.931509
 30
0.0
  0
LWPOLYLINE
  5
32b
100
AcDbEntity
  8
compi_laser_schneiden
 62
2
100
AcDbPolyline
 90
6
 70
1
 10
439.028195
 20
312.994567
 30
0.0
 10
438.028423
 20
312.994567
 30
0.0
 10
438.028423
 20
322.994406
 30
0.0
 10
439.028195
 20
322.994406
 30
0.0
 10
439.028195
 20
312.994567
 30
0.0
 10
439.028195
 20
312.994567
 30
0.0
  0
LWPOLYLINE
  5
32c
100
AcDbEntity
  8
compi_laser_schneiden
 62
2
100
AcDbPolyline
 90
6
 70
1
 10
426.954623
 20
314.673684
 30
0.0
 10
426.012706
 20
315.010587
 30
0.0
 10
429.383498
 20
324.425873
 30
0.0
 10
430.324709
 20
324.088617
 30
0.0
 10
426.954623
 20
314.673684
 30
0.0
 10
426.954623
 20
314.673684
 30
0.0
  0
LWPOLYLINE
  5
32d
100
AcDbEntity
  8
compi_laser_schneiden
 62
2
100
AcDbPolyline
 90
6
 70
1
 10
469.025948
 20
313.464467
 30
0.0
 10
468.025470
 20
313.464467
 30
0.0
 10
468.025470
 20
323.464306
 30
0.0
 10
469.025948
 20
323.464306
 30
0.0
 10
469.025948
 20
313.464467
 30
0.0
 10
469.025948
 20
313.464467
 30
0.0
  0
LWPOLYLINE
  5
32e
100
AcDbEntity
  8
compi_laser_schneiden
 62
2
100
AcDbPolyline
 90
6
 70
1
 10
436.541465
 20
343.056879
 30
0.0
 10
435.541693
 20
343.056879
 30
0.0
 10
435.541693
 20
353.057070
 30
0.0
 10
436.541465
 20
353.057070
 30
0.0
 10
436.541465
 20
343.056879
 30
0.0
 10
436.541465
 20
343.056879
 30
0.0
  0
LWPOLYLINE
  5
32f
100
AcDbEntity
  8
compi_laser_schneiden
 62
2
100
AcDbPolyline
 90
6
 70
1
 10
446.874150
 20
317.129687
 30
0.0
 10
447.375800
 20
317.994699
 30
0.0
 10
456.026969
 20
312.977846
 30
0.0
 10
455.525319
 20
312.113187
 30
0.0
 10
446.874150
 20
317.129687
 30
0.0
 10
446.874150
 20
317.129687
 30
0.0
  0
LWPOLYLINE
  5
330
100
AcDbEntity
  8
compi_laser_schneiden
 62
2
100
AcDbPolyline
 90
6
 70
1
 10
426.543954
 20
340.878123
 30
0.0
 10
427.045604
 20
341.743487
 30
0.0
 10
435.696068
 20
336.726634
 30
0.0
 10
435.194418
 20
335.861623
 30
0.0
 10
426.543954
 20
340.878123
 30
0.0
 10
426.543954
 20
340.878123
 30
0.0
  0
LWPOLYLINE
  5
331
100
AcDbEntity
  8
compi_laser_schneiden
 62
2
100
AcDbPolyline
 90
6
 70
1
 10
436.874487
 20
330.432020
 30
0.0
 10
446.874326
 20
330.432020
 30
0.0
 10
446.874326
 20
329.431895
 30
0.0
 10
436.874487
 20
329.431895
 30
0.0
 10
436.874487
 20
330.432020
 30
0.0
 10
436.874487
 20
330.432020
 30
0.0
  0
LWPOLYLINE
  5
332
100
AcDbEntity
  8
compi_laser_schneiden
 62
2
100
AcDbPolyline
 90
6
 70
1
 10
460.426461
 20
350.393139
 30
0.0
 10
461.133427
 20
351.100106
 30
0.0
 10
468.204858
 20
344.029028
 30
0.0
 10
467.497891
 20
343.322062
 30
0.0
 10
460.426461
 20
350.393139
 30
0.0
 10
460.426461
 20
350.393139
 30
0.0
  0
LWPOLYLINE
  5
333
100
AcDbEntity
  8
compi_laser_schneiden
 62
2
100
AcDbPolyline
 90
6
 70
1
 10
441.874759
 20
305.534023
 30
0.0
 10
451.874598
 20
305.534023
 30
0.0
 10
451.874598
 20
304.534251
 30
0.0
 10
441.874759
 20
304.534251
 30
0.0
 10
441.874759
 20
305.534023
 30
0.0
 10
441.874759
 20
305.534023
 30
0.0
  0
LWPOLYLINE
  5
334
100
AcDbEntity
  8
compi_laser_schneiden
 62
2
100
AcDbPolyline
 90
6
 70
1
 10
458.687372
 20
318.105365
 30
0.0
 10
459.596128
 20
318.521643
 30
0.0
 10
463.761375
 20
309.430207
 30
0.0
 10
462.851914
 20
309.013929
 30
0.0
 10
458.687372
 20
318.105365
 30
0.0
 10
458.687372
 20
318.105365
 30
0.0
  0
LWPOLYLINE
  5
335
100
AcDbEntity
  8
compi_laser_schneiden
 62
2
100
AcDbPolyline
 90
6
 70
1
 10
443.224487
 20
356.898820
 30
0.0
 10
453.224326
 20
356.898820
 30
0.0
 10
453.224326
 20
355.899048
 30
0.0
 10
443.224487
 20
355.899048
 30
0.0
 10
443.224487
 20
356.898820
 30
0.0
 10
443.224487
 20
356.898820
 30
0.0
  0
LWPOLYLINE
  5
336
100
AcDbEntity
  8
compi_laser_schneiden
 62
2
100
AcDbPolyline
 90
6
 70
1
 10
442.874532
 20
349.211087
 30
0.0
 10
452.874370
 20
349.211087
 30
0.0
 10
452.874370
 20
348.210962
 30
0.0
 10
442.874532
 20
348.210962
 30
0.0
 10
442.874532
 20
349.211087
 30
0.0
 10
442.874532
 20
349.211087
 30
0.0
  0
LWPOLYLINE
  5
337
100
AcDbEntity
  8
compi_laser_schneiden
 62
2
100
AcDbPolyline
 90
6
 70
1
 10
441.874759
 20
340.802276
 30
0.0
 10
451.874598
 20
340.802276
 30
0.0
 10
451.874598
 20
339.802504
 30
0.0
 10
441.874759
 20
339.802504
 30
0.0
 10
441.874759
 20
340.802276
 30
0.0
 10
441.874759
 20
340.802276
 30
0.0
  0
LWPOLYLINE
  5
338
100
AcDbEntity
  8
compi_laser_schneiden
 62
2
100
AcDbPolyline
 90
6
 70
1
 10
472.808079
 20
335.931826
 30
0.0
 10
473.808557
 20
335.931826
 30
0.0
 10
473.808557
 20
325.931634
 30
0.0
 10
472.808079
 20
325.931634
 30
0.0
 10
472.808079
 20
335.931826
 30
0.0
 10
472.808079
 20
335.931826
 30
0.0
  0
LWPOLYLINE
  5
339
100
AcDbEntity
  8
compi_laser_schneiden
 62
2
100
AcDbPolyline
 90
6
 70
1
 10
462.724279
 20
339.850481
 30
0.0
 10
463.724051
 20
339.850481
 30
0.0
 10
463.724051
 20
329.850290
 30
0.0
 10
462.724279
 20
329.850290
 30
0.0
 10
462.724279
 20
339.850481
 30
0.0
 10
462.724279
 20
339.850481
 30
0.0
  0
LWPOLYLINE
  5
33a
100
AcDbEntity
  8
compi_laser_schneiden
 62
2
100
AcDbPolyline
 90
6
 70
1
 10
455.907201
 20
334.932054
 30
0.0
 10
456.906973
 20
334.932054
 30
0.0
 10
456.906973
 20
324.931509
 30
0.0
 10
455.907201
 20
324.931509
 30
0.0
 10
455.907201
 20
334.932054
 30
0.0
 10
455.907201
 20
334.932054
 30
0.0
  0
LWPOLYLINE
  5
33b
100
AcDbEntity
  8
compi_laser_schneiden
 62
2
100
AcDbPolyline
 90
2
 70
0
 10
411.640469
 20
474.583300
 30
0.0
 10
411.640469
 20
499.582897
 30
0.0
  0
LWPOLYLINE
  5
33c
100
AcDbEntity
  8
compi_laser_schneiden
 62
2
100
AcDbPolyline
 90
2
 70
0
 10
472.352713
 20
469.583451
 30
0.0
 10
415.352997
 20
469.583451
 30
0.0
  0
LWPOLYLINE
  5
33d
100
AcDbEntity
  8
compi_laser_schneiden
 62
2
100
AcDbPolyline
 90
6
 70
0
 10
415.352891
 20
499.583320
 30
0.0
 10
415.352891
 20
504.583240
 30
0.0
 10
472.352607
 20
504.583240
 30
0.0
 10
472.352607
 20
499.583320
 30
0.0
 10
476.022555
 20
499.583320
 30
0.0
 10
476.022555
 20
474.583370
 30
0.0
  0
LWPOLYLINE
  5
33e
100
AcDbEntity
  8
compi_laser_schneiden
 62
2
100
AcDbPolyline
 90
2
 70
0
 10
411.640469
 20
499.583003
 30
0.0
 10
415.352750
 20
499.583355
 30
0.0
  0
LWPOLYLINE
  5
33f
100
AcDbEntity
  8
compi_laser_schneiden
 62
2
100
AcDbPolyline
 90
2
 70
0
 10
411.640469
 20
474.583300
 30
0.0
 10
415.352750
 20
474.583300
 30
0.0
  0
LWPOLYLINE
  5
340
100
AcDbEntity
  8
compi_laser_schneiden
 62
2
100
AcDbPolyline
 90
2
 70
0
 10
415.352891
 20
474.583300
 30
0.0
 10
415.352891
 20
469.583380
 30
0.0
  0
LWPOLYLINE
  5
341
100
AcDbEntity
  8
compi_laser_schneiden
 62
2
100
AcDbPolyline
 90
3
 70
0
 10
472.352713
 20
469.583098
 30
0.0
 10
472.352713
 20
474.583370
 30
0.0
 10
476.022308
 20
474.583300
 30
0.0
  0
LWPOLYLINE
  5
342
100
AcDbEntity
  8
compi_laser_schneiden
 62
2
100
AcDbPolyline
 90
3
 70
0
 10
472.352713
 20
469.583451
 30
0.0
 10
472.352713
 20
474.583370
 30
0.0
 10
476.022308
 20
474.583300
 30
0.0
  0
SPLINE
  5
343
100
AcDbEntity
  8
compi_laser_schneiden
 62
2
100
AcDbSpline
 70
8
 71
3
 72
8
 73
4
 74
0
 40
0
 40
0
 40
0
 40
0
 40
1
 40
1
 40
1
 40
1
 10
446.103154
 20
476.583197
 30
0.0
 10
446.103154
 20
475.340714
 30
0.0
 10
445.095620
 20
474.333180
 30
0.0
 10
443.852784
 20
474.333180
 30
0.0
  0
SPLINE
  5
344
100
AcDbEntity
  8
compi_laser_schneiden
 62
2
100
AcDbSpline
 70
8
 71
3
 72
8
 73
4
 74
0
 40
0
 40
0
 40
0
 40
0
 40
1
 40
1
 40
1
 40
1
 10
443.852784
 20
474.333180
 30
0.0
 10
442.610301
 20
474.333180
 30
0.0
 10
441.603120
 20
475.340714
 30
0.0
 10
441.603120
 20
476.583197
 30
0.0
  0
SPLINE
  5
345
100
AcDbEntity
  8
compi_laser_schneiden
 62
2
100
AcDbSpline
 70
8
 71
3
 72
8
 73
4
 74
0
 40
0
 40
0
 40
0
 40
0
 40
1
 40
1
 40
1
 40
1
 10
441.603120
 20
476.583197
 30
0.0
 10
441.603120
 20
477.825680
 30
0.0
 10
442.610301
 20
478.833214
 30
0.0
 10
443.852784
 20
478.833214
 30
0.0
  0
SPLINE
  5
346
100
AcDbEntity
  8
compi_laser_schneiden
 62
2
100
AcDbSpline
 70
8
 71
3
 72
8
 73
4
 74
0
 40
0
 40
0
 40
0
 40
0
 40
1
 40
1
 40
1
 40
1
 10
443.852784
 20
478.833214
 30
0.0
 10
445.095620
 20
478.833214
 30
0.0
 10
446.103154
 20
477.825680
 30
0.0
 10
446.103154
 20
476.583197
 30
0.0
  0
LWPOLYLINE
  5
347
100
AcDbEntity
  8
compi_laser_schneiden
 62
2
100
AcDbPolyline
 90
2
 70
0
 10
443.852784
 20
504.583204
 30
0.0
 10
443.852784
 20
497.543171
 30
0.0
  0
LWPOLYLINE
  5
348
100
AcDbEntity
  8
compi_laser_schneiden
 62
2
100
AcDbPolyline
 90
2
 70
1
 10
446.103154
 20
476.583197
 30
0.0
 10
446.103154
 20
476.583197
 30
0.0
  0
LWPOLYLINE
  5
349
100
AcDbEntity
  8
compi_laser_schneiden
 62
2
100
AcDbPolyline
 90
6
 70
1
 10
431.353162
 20
484.583209
 30
0.0
 10
428.353140
 20
484.583209
 30
0.0
 10
428.353140
 20
489.583481
 30
0.0
 10
431.353162
 20
489.583481
 30
0.0
 10
431.353162
 20
484.583209
 30
0.0
 10
431.353162
 20
484.583209
 30
0.0
  0
LWPOLYLINE
  5
34a
100
AcDbEntity
  8
compi_laser_schneiden
 62
2
100
AcDbPolyline
 90
6
 70
1
 10
459.353134
 20
484.583209
 30
0.0
 10
456.353112
 20
484.583209
 30
0.0
 10
456.353112
 20
489.583481
 30
0.0
 10
459.353134
 20
489.583481
 30
0.0
 10
459.353134
 20
484.583209
 30
0.0
 10
459.353134
 20
484.583209
 30
0.0
  0
LWPOLYLINE
  5
34b
100
AcDbEntity
  8
compi_laser_schneiden
 62
2
100
AcDbPolyline
 90
6
 70
1
 10
468.853087
 20
462.769195
 30
0.0
 10
418.853187
 20
462.769195
 30
0.0
 10
418.853187
 20
467.769467
 30
0.0
 10
468.853087
 20
467.769467
 30
0.0
 10
468.853087
 20
462.769195
 30
0.0
 10
468.853087
 20
462.769195
 30
0.0
  0
LWPOLYLINE
  5
34c
100
AcDbEntity
  8
compi_laser_schneiden
 62
7
100
AcDbPolyline
 90
4
 70
0
 10
467.091350
 20
446.246354
 30
0.0
 10
467.091350
 20
437.746526
 30
0.0
 10
420.091120
 20
437.746526
 30
0.0
 10
420.091120
 20
444.781268
 30
0.0
  0
LWPOLYLINE
  5
34d
100
AcDbEntity
  8
compi_laser_schneiden
 62
7
100
AcDbPolyline
 90
4
 70
0
 10
420.091296
 20
450.700879
 30
0.0
 10
420.091296
 20
457.746557
 30
0.0
 10
467.091527
 20
457.746557
 30
0.0
 10
467.091527
 20
449.246376
 30
0.0
  0
LWPOLYLINE
  5
34e
100
AcDbEntity
  8
compi_laser_schneiden
 62
7
100
AcDbPolyline
 90
4
 70
0
 10
467.091350
 20
449.246341
 30
0.0
 10
470.091372
 20
449.246341
 30
0.0
 10
470.091372
 20
446.246319
 30
0.0
 10
467.091350
 20
446.246319
 30
0.0
  0
LWPOLYLINE
  5
34f
100
AcDbEntity
  8
compi_laser_schneiden
 62
7
100
AcDbPolyline
 90
6
 70
1
 10
421.135307
 20
449.246870
 30
0.0
 10
422.135784
 20
449.246870
 30
0.0
 10
422.135784
 20
446.246848
 30
0.0
 10
421.135307
 20
446.246848
 30
0.0
 10
421.135307
 20
449.246870
 30
0.0
 10
421.135307
 20
449.246870
 30
0.0
  0
LWPOLYLINE
  5
350
100
AcDbEntity
  8
compi_laser_schneiden
 62
7
100
AcDbPolyline
 90
2
 70
0
 10
420.135393
 20
444.791851
 30
0.0
 10
417.349154
 20
444.781268
 30
0.0
  0
SPLINE
  5
351
100
AcDbEntity
  8
compi_laser_schneiden
 62
7
100
AcDbSpline
 70
8
 71
3
 72
8
 73
4
 74
0
 40
0
 40
0
 40
0
 40
0
 40
1
 40
1
 40
1
 40
1
 10
417.348978
 20
444.786348
 30
0.0
 10
415.672578
 20
444.786348
 30
0.0
 10
414.313325
 20
446.111381
 30
0.0
 10
414.313325
 20
447.746859
 30
0.0
  0
SPLINE
  5
352
100
AcDbEntity
  8
compi_laser_schneiden
 62
7
100
AcDbSpline
 70
8
 71
3
 72
8
 73
4
 74
0
 40
0
 40
0
 40
0
 40
0
 40
1
 40
1
 40
1
 40
1
 10
414.313325
 20
447.746859
 30
0.0
 10
414.313325
 20
449.381984
 30
0.0
 10
415.672578
 20
450.707017
 30
0.0
 10
417.348978
 20
450.707017
 30
0.0
  0
SPLINE
  5
353
100
AcDbEntity
  8
compi_laser_schneiden
 62
7
100
AcDbSpline
 70
8
 71
3
 72
8
 73
4
 74
0
 40
0
 40
0
 40
0
 40
0
 40
1
 40
1
 40
1
 40
1
 10
417.836129
 20
446.803108
 30
0.0
 10
417.315076
 20
446.803108
 30
0.0
 10
416.893507
 20
447.225383
 30
0.0
 10
416.893507
 20
447.746083
 30
0.0
  0
SPLINE
  5
354
100
AcDbEntity
  8
compi_laser_schneiden
 62
7
100
AcDbSpline
 70
8
 71
3
 72
8
 73
4
 74
0
 40
0
 40
0
 40
0
 40
0
 40
1
 40
1
 40
1
 40
1
 10
416.893507
 20
447.746083
 30
0.0
 10
416.893507
 20
448.266783
 30
0.0
 10
417.315076
 20
448.689411
 30
0.0
 10
417.836129
 20
448.689411
 30
0.0
  0
SPLINE
  5
355
100
AcDbEntity
  8
compi_laser_schneiden
 62
7
100
AcDbSpline
 70
8
 71
3
 72
8
 73
4
 74
0
 40
0
 40
0
 40
0
 40
0
 40
1
 40
1
 40
1
 40
1
 10
417.836129
 20
448.689411
 30
0.0
 10
418.357182
 20
448.689411
 30
0.0
 10
418.778751
 20
448.266783
 30
0.0
 10
418.778751
 20
447.746083
 30
0.0
  0
SPLINE
  5
356
100
AcDbEntity
  8
compi_laser_schneiden
 62
7
100
AcDbSpline
 70
8
 71
3
 72
8
 73
4
 74
0
 40
0
 40
0
 40
0
 40
0
 40
1
 40
1
 40
1
 40
1
 10
418.778751
 20
447.746083
 30
0.0
 10
418.778751
 20
447.225383
 30
0.0
 10
418.357182
 20
446.803108
 30
0.0
 10
417.836129
 20
446.803108
 30
0.0
  0
LWPOLYLINE
  5
357
100
AcDbEntity
  8
compi_laser_schneiden
 62
7
100
AcDbPolyline
 90
2
 70
0
 10
417.348978
 20
450.690190
 30
0.0
 10
420.135217
 20
450.700773
 30
0.0
  0
SPLINE
  5
358
100
AcDbEntity
  8
compi_laser_schneiden
 62
7
100
AcDbSpline
 70
8
 71
3
 72
8
 73
4
 74
0
 40
0
 40
0
 40
0
 40
0
 40
1
 40
1
 40
1
 40
1
 10
536.244402
 20
496.732523
 30
0.0
 10
535.722997
 20
496.732523
 30
0.0
 10
535.301427
 20
497.154798
 30
0.0
 10
535.301427
 20
497.675498
 30
0.0
  0
SPLINE
  5
359
100
AcDbEntity
  8
compi_laser_schneiden
 62
7
100
AcDbSpline
 70
8
 71
3
 72
8
 73
4
 74
0
 40
0
 40
0
 40
0
 40
0
 40
1
 40
1
 40
1
 40
1
 10
535.301427
 20
497.675498
 30
0.0
 10
535.301427
 20
498.196198
 30
0.0
 10
535.722997
 20
498.618826
 30
0.0
 10
536.244402
 20
498.618826
 30
0.0
  0
SPLINE
  5
35a
100
AcDbEntity
  8
compi_laser_schneiden
 62
7
100
AcDbSpline
 70
8
 71
3
 72
8
 73
4
 74
0
 40
0
 40
0
 40
0
 40
0
 40
1
 40
1
 40
1
 40
1
 10
536.244402
 20
498.618826
 30
0.0
 10
536.765808
 20
498.618826
 30
0.0
 10
537.187377
 20
498.196198
 30
0.0
 10
537.187377
 20
497.675498
 30
0.0
  0
SPLINE
  5
35b
100
AcDbEntity
  8
compi_laser_schneiden
 62
7
100
AcDbSpline
 70
8
 71
3
 72
8
 73
4
 74
0
 40
0
 40
0
 40
0
 40
0
 40
1
 40
1
 40
1
 40
1
 10
537.187377
 20
497.675498
 30
0.0
 10
537.187377
 20
497.154798
 30
0.0
 10
536.765808
 20
496.732523
 30
0.0
 10
536.244402
 20
496.732523
 30
0.0
  0
LWPOLYLINE
  5
35c
100
AcDbEntity
  8
compi_laser_schneiden
 62
7
100
AcDbPolyline
 90
2
 70
1
 10
417.836129
 20
446.803108
 30
0.0
 10
417.836129
 20
446.803108
 30
0.0
  0
SPLINE
  5
35d
100
AcDbEntity
  8
compi_laser_schneiden
 62
7
100
AcDbSpline
 70
8
 71
3
 72
8
 73
4
 74
0
 40
0
 40
0
 40
0
 40
0
 40
1
 40
1
 40
1
 40
1
 10
526.090682
 20
496.732523
 30
0.0
 10
525.569276
 20
496.732523
 30
0.0
 10
525.147707
 20
497.154798
 30
0.0
 10
525.147707
 20
497.675498
 30
0.0
  0
SPLINE
  5
35e
100
AcDbEntity
  8
compi_laser_schneiden
 62
7
100
AcDbSpline
 70
8
 71
3
 72
8
 73
4
 74
0
 40
0
 40
0
 40
0
 40
0
 40
1
 40
1
 40
1
 40
1
 10
525.147707
 20
497.675498
 30
0.0
 10
525.147707
 20
498.196198
 30
0.0
 10
525.569276
 20
498.618826
 30
0.0
 10
526.090682
 20
498.618826
 30
0.0
  0
SPLINE
  5
35f
100
AcDbEntity
  8
compi_laser_schneiden
 62
7
100
AcDbSpline
 70
8
 71
3
 72
8
 73
4
 74
0
 40
0
 40
0
 40
0
 40
0
 40
1
 40
1
 40
1
 40
1
 10
526.090682
 20
498.618826
 30
0.0
 10
526.611735
 20
498.618826
 30
0.0
 10
527.033304
 20
498.196198
 30
0.0
 10
527.033304
 20
497.675498
 30
0.0
  0
SPLINE
  5
360
100
AcDbEntity
  8
compi_laser_schneiden
 62
7
100
AcDbSpline
 70
8
 71
3
 72
8
 73
4
 74
0
 40
0
 40
0
 40
0
 40
0
 40
1
 40
1
 40
1
 40
1
 10
527.033304
 20
497.675498
 30
0.0
 10
527.033304
 20
497.154798
 30
0.0
 10
526.611735
 20
496.732523
 30
0.0
 10
526.090682
 20
496.732523
 30
0.0
  0
LWPOLYLINE
  5
361
100
AcDbEntity
  8
compi_laser_schneiden
 62
7
100
AcDbPolyline
 90
2
 70
1
 10
536.244402
 20
496.732523
 30
0.0
 10
536.244402
 20
496.732523
 30
0.0
  0
LWPOLYLINE
  5
362
100
AcDbEntity
  8
compi_laser_schneiden
 62
7
100
AcDbPolyline
 90
2
 70
1
 10
526.090682
 20
496.732523
 30
0.0
 10
526.090682
 20
496.732523
 30
0.0
  0
LWPOLYLINE
  5
363
100
AcDbEntity
  8
compi_laser_schneiden
 62
7
100
AcDbPolyline
 90
6
 70
1
 10
433.091651
 20
452.746426
 30
0.0
 10
452.091204
 20
452.746426
 30
0.0
 10
452.091204
 20
442.746587
 30
0.0
 10
433.091651
 20
442.746587
 30
0.0
 10
433.091651
 20
452.746426
 30
0.0
 10
433.091651
 20
452.746426
 30
0.0
  0
LWPOLYLINE
  5
364
100
AcDbEntity
  8
compi_laser_schneiden
 62
7
100
AcDbPolyline
 90
2
 70
0
 10
487.435339
 20
270.820372
 30
0.0
 10
487.434634
 20
276.545603
 30
0.0
  0
LWPOLYLINE
  5
365
100
AcDbEntity
  8
compi_laser_schneiden
 62
7
100
AcDbPolyline
 90
2
 70
0
 10
487.434634
 20
218.424264
 30
0.0
 10
487.434634
 20
265.991056
 30
0.0
  0
LWPOLYLINE
  5
366
100
AcDbEntity
  8
compi_laser_schneiden
 62
7
100
AcDbPolyline
 90
2
 70
0
 10
547.385513
 20
130.135099
 30
0.0
 10
547.385513
 20
104.017902
 30
0.0
  0
LWPOLYLINE
  5
367
100
AcDbEntity
  8
compi_laser_schneiden
 62
7
100
AcDbPolyline
 90
2
 70
0
 10
547.385513
 20
159.371557
 30
0.0
 10
547.385513
 20
130.163674
 30
0.0
  0
LWPOLYLINE
  5
368
100
AcDbEntity
  8
compi_laser_schneiden
 62
7
100
AcDbPolyline
 90
2
 70
0
 10
485.435089
 20
130.264604
 30
0.0
 10
485.434384
 20
159.388879
 30
0.0
  0
SPLINE
  5
369
100
AcDbEntity
  8
compi_laser_schneiden
 62
7
100
AcDbSpline
 70
8
 71
3
 72
8
 73
4
 74
0
 40
0
 40
0
 40
0
 40
0
 40
1
 40
1
 40
1
 40
1
 10
492.540951
 20
152.568167
 30
0.0
 10
492.540951
 20
152.568167
 30
0.0
 10
508.562354
 20
153.955290
 30
0.0
 10
516.406367
 20
153.955290
 30
0.0
  0
SPLINE
  5
36a
100
AcDbEntity
  8
compi_laser_schneiden
 62
7
100
AcDbSpline
 70
8
 71
3
 72
8
 73
4
 74
0
 40
0
 40
0
 40
0
 40
0
 40
1
 40
1
 40
1
 40
1
 10
516.406509
 20
153.955149
 30
0.0
 10
524.250875
 20
153.955149
 30
0.0
 10
539.605528
 20
152.568026
 30
0.0
 10
539.605528
 20
152.568026
 30
0.0
  0
SPLINE
  5
36b
100
AcDbEntity
  8
compi_laser_schneiden
 62
7
100
AcDbSpline
 70
8
 71
3
 72
8
 73
4
 74
0
 40
0
 40
0
 40
0
 40
0
 40
1
 40
1
 40
1
 40
1
 10
539.605775
 20
152.568167
 30
0.0
 10
539.605775
 20
152.568167
 30
0.0
 10
540.838028
 20
139.994815
 30
0.0
 10
540.838028
 20
132.584012
 30
0.0
  0
SPLINE
  5
36c
100
AcDbEntity
  8
compi_laser_schneiden
 62
7
100
AcDbSpline
 70
8
 71
3
 72
8
 73
4
 74
0
 40
0
 40
0
 40
0
 40
0
 40
1
 40
1
 40
1
 40
1
 10
540.838098
 20
132.583871
 30
0.0
 10
540.838098
 20
125.172010
 30
0.0
 10
539.605845
 20
112.599715
 30
0.0
 10
539.605845
 20
112.599715
 30
0.0
  0
LWPOLYLINE
  5
36d
100
AcDbEntity
  8
compi_laser_schneiden
 62
7
100
AcDbPolyline
 90
2
 70
0
 10
485.434419
 20
103.848322
 30
0.0
 10
485.435124
 20
130.264674
 30
0.0
  0
SPLINE
  5
36e
100
AcDbEntity
  8
compi_laser_schneiden
 62
7
100
AcDbSpline
 70
8
 71
3
 72
8
 73
4
 74
0
 40
0
 40
0
 40
0
 40
0
 40
1
 40
1
 40
1
 40
1
 10
539.605775
 20
112.598869
 30
0.0
 10
539.605775
 20
112.598869
 30
0.0
 10
524.251122
 20
111.211746
 30
0.0
 10
516.407108
 20
111.211746
 30
0.0
  0
SPLINE
  5
36f
100
AcDbEntity
  8
compi_laser_schneiden
 62
7
100
AcDbSpline
 70
8
 71
3
 72
8
 73
4
 74
0
 40
0
 40
0
 40
0
 40
0
 40
1
 40
1
 40
1
 40
1
 10
516.406509
 20
111.211852
 30
0.0
 10
508.562495
 20
111.211852
 30
0.0
 10
492.541092
 20
112.598974
 30
0.0
 10
492.541092
 20
112.598974
 30
0.0
  0
SPLINE
  5
370
100
AcDbEntity
  8
compi_laser_schneiden
 62
7
100
AcDbSpline
 70
8
 71
3
 72
8
 73
4
 74
0
 40
0
 40
0
 40
0
 40
0
 40
1
 40
1
 40
1
 40
1
 10
492.540951
 20
112.598869
 30
0.0
 10
492.540951
 20
112.598869
 30
0.0
 10
491.308345
 20
125.922580
 30
0.0
 10
491.308345
 20
132.583024
 30
0.0
  0
SPLINE
  5
371
100
AcDbEntity
  8
compi_laser_schneiden
 62
7
100
AcDbSpline
 70
8
 71
3
 72
8
 73
4
 74
0
 40
0
 40
0
 40
0
 40
0
 40
1
 40
1
 40
1
 40
1
 10
491.308310
 20
132.583871
 30
0.0
 10
491.308310
 20
139.245374
 30
0.0
 10
492.540915
 20
152.568026
 30
0.0
 10
492.540915
 20
152.568026
 30
0.0
  0
LWPOLYLINE
  5
372
100
AcDbEntity
  8
compi_laser_schneiden
 62
7
100
AcDbPolyline
 90
2
 70
0
 10
487.434634
 20
276.495826
 30
0.0
 10
487.435339
 20
284.819970
 30
0.0
  0
LWPOLYLINE
  5
373
100
AcDbEntity
  8
compi_laser_schneiden
 62
7
100
AcDbPolyline
 90
2
 70
0
 10
545.385968
 20
103.932706
 30
0.0
 10
545.385263
 20
99.062609
 30
0.0
  0
LWPOLYLINE
  5
374
100
AcDbEntity
  8
compi_laser_schneiden
 62
7
100
AcDbPolyline
 90
2
 70
0
 10
545.385263
 20
94.233399
 30
0.0
 10
545.385263
 20
90.914465
 30
0.0
  0
LWPOLYLINE
  5
375
100
AcDbEntity
  8
compi_laser_schneiden
 62
7
100
AcDbPolyline
 90
2
 70
0
 10
487.436715
 20
90.846873
 30
0.0
 10
487.436009
 20
94.236009
 30
0.0
  0
LWPOLYLINE
  5
376
100
AcDbEntity
  8
compi_laser_schneiden
 62
7
100
AcDbPolyline
 90
2
 70
0
 10
487.435339
 20
99.056541
 30
0.0
 10
487.434634
 20
103.932635
 30
0.0
  0
LWPOLYLINE
  5
377
100
AcDbEntity
  8
compi_laser_schneiden
 62
7
100
AcDbPolyline
 90
4
 70
0
 10
487.435339
 20
94.227895
 30
0.0
 10
484.536564
 20
94.227895
 30
0.0
 10
484.536564
 20
99.056717
 30
0.0
 10
487.435339
 20
99.056717
 30
0.0
  0
LWPOLYLINE
  5
378
100
AcDbEntity
  8
compi_laser_schneiden
 62
7
100
AcDbPolyline
 90
4
 70
0
 10
545.385263
 20
99.062750
 30
0.0
 10
548.283332
 20
99.062750
 30
0.0
 10
548.283332
 20
94.233575
 30
0.0
 10
545.385263
 20
94.233575
 30
0.0
  0
LWPOLYLINE
  5
379
100
AcDbEntity
  8
compi_laser_schneiden
 62
7
100
AcDbPolyline
 90
2
 70
0
 10
429.647975
 20
151.142592
 30
0.0
 10
424.818800
 20
159.507306
 30
0.0
  0
LWPOLYLINE
  5
37a
100
AcDbEntity
  8
compi_laser_schneiden
 62
7
100
AcDbPolyline
 90
4
 70
1
 10
486.468622
 20
159.507271
 30
0.0
 10
458.058369
 20
155.781585
 30
0.0
 10
486.468622
 20
159.507271
 30
0.0
 10
486.468622
 20
159.507271
 30
0.0
  0
LWPOLYLINE
  5
37b
100
AcDbEntity
  8
compi_laser_schneiden
 62
7
100
AcDbPolyline
 90
4
 70
1
 10
458.058299
 20
155.781761
 30
0.0
 10
429.648046
 20
151.142734
 30
0.0
 10
458.058299
 20
155.781761
 30
0.0
 10
458.058299
 20
155.781761
 30
0.0
  0
LWPOLYLINE
  5
37c
100
AcDbEntity
  8
compi_laser_schneiden
 62
7
100
AcDbPolyline
 90
4
 70
0
 10
486.468622
 20
219.389570
 30
0.0
 10
443.624819
 20
219.144390
 30
0.0
 10
424.818589
 20
219.389570
 30
0.0
 10
405.506828
 20
219.389570
 30
0.0
  0
LWPOLYLINE
  5
37d
100
AcDbEntity
  8
compi_laser_schneiden
 62
7
100
AcDbPolyline
 90
3
 70
0
 10
405.337318
 20
219.389570
 30
0.0
 10
405.337318
 20
159.507306
 30
0.0
 10
424.818765
 20
159.507306
 30
0.0
  0
LWPOLYLINE
  5
37e
100
AcDbEntity
  8
compi_laser_schneiden
 62
7
100
AcDbPolyline
 90
6
 70
1
 10
412.268237
 20
209.487804
 30
0.0
 10
413.230968
 20
209.487804
 30
0.0
 10
413.230968
 20
170.856873
 30
0.0
 10
412.268237
 20
170.856873
 30
0.0
 10
412.268237
 20
209.487804
 30
0.0
 10
412.268237
 20
209.487804
 30
0.0
  0
LWPOLYLINE
  5
37f
100
AcDbEntity
  8
compi_laser_schneiden
 62
7
100
AcDbPolyline
 90
6
 70
1
 10
454.635437
 20
212.447609
 30
0.0
 10
480.643273
 20
212.447609
 30
0.0
 10
480.643273
 20
211.481704
 30
0.0
 10
454.635437
 20
211.481704
 30
0.0
 10
454.635437
 20
212.447609
 30
0.0
 10
454.635437
 20
212.447609
 30
0.0
  0
LWPOLYLINE
  5
380
100
AcDbEntity
  8
compi_laser_schneiden
 62
7
100
AcDbPolyline
 90
6
 70
1
 10
427.608497
 20
160.880494
 30
0.0
 10
430.149555
 20
156.340244
 30
0.0
 10
429.267610
 20
155.817427
 30
0.0
 10
426.726552
 20
160.358030
 30
0.0
 10
427.608497
 20
160.880494
 30
0.0
 10
427.608497
 20
160.880494
 30
0.0
  0
LWPOLYLINE
  5
381
100
AcDbEntity
  8
compi_laser_schneiden
 62
7
100
AcDbPolyline
 90
2
 70
0
 10
487.435339
 20
84.077244
 30
0.0
 10
487.434634
 20
90.911608
 30
0.0
  0
LWPOLYLINE
  5
382
100
AcDbEntity
  8
compi_laser_schneiden
 62
7
100
AcDbPolyline
 90
4
 70
0
 10
545.385263
 20
83.428874
 30
0.0
 10
545.385263
 20
80.527982
 30
0.0
 10
487.434457
 20
80.527982
 30
0.0
 10
487.435163
 20
84.077279
 30
0.0
  0
LWPOLYLINE
  5
383
100
AcDbEntity
  8
compi_laser_schneiden
 62
7
100
AcDbPolyline
 90
2
 70
0
 10
545.385263
 20
90.914395
 30
0.0
 10
545.385263
 20
83.428803
 30
0.0
  0
LWPOLYLINE
  5
384
100
AcDbEntity
  8
compi_laser_schneiden
 62
7
100
AcDbPolyline
 90
6
 70
1
 10
435.155401
 20
217.432006
 30
0.0
 10
440.128862
 20
217.432006
 30
0.0
 10
440.128862
 20
216.466101
 30
0.0
 10
435.155401
 20
216.466101
 30
0.0
 10
435.155401
 20
217.432006
 30
0.0
 10
435.155401
 20
217.432006
 30
0.0
  0
LWPOLYLINE
  5
385
100
AcDbEntity
  8
compi_laser_schneiden
 62
7
100
AcDbPolyline
 90
2
 70
0
 10
603.172626
 20
151.142592
 30
0.0
 10
608.001801
 20
159.507306
 30
0.0
  0
LWPOLYLINE
  5
386
100
AcDbEntity
  8
compi_laser_schneiden
 62
7
100
AcDbPolyline
 90
4
 70
1
 10
546.351274
 20
159.507271
 30
0.0
 10
574.761527
 20
155.781585
 30
0.0
 10
546.351274
 20
159.507271
 30
0.0
 10
546.351274
 20
159.507271
 30
0.0
  0
LWPOLYLINE
  5
387
100
AcDbEntity
  8
compi_laser_schneiden
 62
7
100
AcDbPolyline
 90
4
 70
1
 10
574.762303
 20
155.781761
 30
0.0
 10
603.172556
 20
151.142734
 30
0.0
 10
574.762303
 20
155.781761
 30
0.0
 10
574.762303
 20
155.781761
 30
0.0
  0
LWPOLYLINE
  5
388
100
AcDbEntity
  8
compi_laser_schneiden
 62
7
100
AcDbPolyline
 90
4
 70
0
 10
546.351274
 20
219.389570
 30
0.0
 10
589.195077
 20
219.144390
 30
0.0
 10
608.002013
 20
219.389570
 30
0.0
 10
627.313774
 20
219.389570
 30
0.0
  0
LWPOLYLINE
  5
389
100
AcDbEntity
  8
compi_laser_schneiden
 62
7
100
AcDbPolyline
 90
3
 70
0
 10
627.483284
 20
219.389570
 30
0.0
 10
627.483284
 20
159.507306
 30
0.0
 10
608.001837
 20
159.507306
 30
0.0
  0
LWPOLYLINE
  5
38a
100
AcDbEntity
  8
compi_laser_schneiden
 62
7
100
AcDbPolyline
 90
6
 70
1
 10
619.589740
 20
209.487804
 30
0.0
 10
620.552470
 20
209.487804
 30
0.0
 10
620.552470
 20
170.856873
 30
0.0
 10
619.589740
 20
170.856873
 30
0.0
 10
619.589740
 20
209.487804
 30
0.0
 10
619.589740
 20
209.487804
 30
0.0
  0
LWPOLYLINE
  5
38b
100
AcDbEntity
  8
compi_laser_schneiden
 62
7
100
AcDbPolyline
 90
6
 70
1
 10
552.013745
 20
212.447609
 30
0.0
 10
578.107659
 20
212.447609
 30
0.0
 10
578.107659
 20
211.481704
 30
0.0
 10
552.013745
 20
211.481704
 30
0.0
 10
552.013745
 20
212.447609
 30
0.0
 10
552.013745
 20
212.447609
 30
0.0
  0
LWPOLYLINE
  5
38c
100
AcDbEntity
  8
compi_laser_schneiden
 62
7
100
AcDbPolyline
 90
6
 70
1
 10
606.153316
 20
160.191484
 30
0.0
 10
603.482083
 20
155.572917
 30
0.0
 10
602.553925
 20
156.104906
 30
0.0
 10
605.225864
 20
160.724178
 30
0.0
 10
606.153316
 20
160.191484
 30
0.0
 10
606.153316
 20
160.191484
 30
0.0
  0
LWPOLYLINE
  5
38d
100
AcDbEntity
  8
compi_laser_schneiden
 62
7
100
AcDbPolyline
 90
6
 70
1
 10
593.225245
 20
217.430595
 30
0.0
 10
598.568418
 20
217.430595
 30
0.0
 10
598.568418
 20
216.464690
 30
0.0
 10
593.225245
 20
216.464690
 30
0.0
 10
593.225245
 20
217.430595
 30
0.0
 10
593.225245
 20
217.430595
 30
0.0
  0
LWPOLYLINE
  5
38e
100
AcDbEntity
  8
compi_laser_schneiden
 62
7
100
AcDbPolyline
 90
4
 70
0
 10
487.435339
 20
265.991056
 30
0.0
 10
484.536564
 20
265.991056
 30
0.0
 10
484.536564
 20
270.820231
 30
0.0
 10
487.435339
 20
270.820231
 30
0.0
  0
LWPOLYLINE
  5
38f
100
AcDbEntity
  8
compi_laser_schneiden
 62
7
100
AcDbPolyline
 90
6
 70
1
 10
506.762234
 20
218.437423
 30
0.0
 10
527.033198
 20
218.437423
 30
0.0
 10
527.033198
 20
211.447484
 30
0.0
 10
506.762234
 20
211.447484
 30
0.0
 10
506.762234
 20
218.437423
 30
0.0
 10
506.762234
 20
218.437423
 30
0.0
  0
LWPOLYLINE
  5
390
100
AcDbEntity
  8
compi_laser_schneiden
 62
7
100
AcDbPolyline
 90
2
 70
0
 10
545.385968
 20
270.820372
 30
0.0
 10
545.386674
 20
276.545603
 30
0.0
  0
LWPOLYLINE
  5
391
100
AcDbEntity
  8
compi_laser_schneiden
 62
7
100
AcDbPolyline
 90
2
 70
0
 10
545.386639
 20
218.424264
 30
0.0
 10
545.386639
 20
265.991056
 30
0.0
  0
LWPOLYLINE
  5
392
100
AcDbEntity
  8
compi_laser_schneiden
 62
7
100
AcDbPolyline
 90
6
 70
0
 10
545.386639
 20
276.495826
 30
0.0
 10
545.385933
 20
284.819970
 30
0.0
 10
545.385615
 20
291.936980
 30
0.0
 10
539.037379
 20
291.936980
 30
0.0
 10
487.434810
 20
291.936980
 30
0.0
 10
487.435163
 20
284.687396
 30
0.0
  0
LWPOLYLINE
  5
393
100
AcDbEntity
  8
compi_laser_schneiden
 62
7
100
AcDbPolyline
 90
4
 70
0
 10
545.385968
 20
265.991056
 30
0.0
 10
548.284743
 20
265.991056
 30
0.0
 10
548.284743
 20
270.820231
 30
0.0
 10
545.385968
 20
270.820231
 30
0.0
  0
LWPOLYLINE
  5
394
100
AcDbEntity
  8
compi_laser_schneiden
 62
7
100
AcDbPolyline
 90
2
 70
0
 10
487.444617
 20
160.473282
 30
0.0
 10
486.468481
 20
160.473282
 30
0.0
  0
LWPOLYLINE
  5
395
100
AcDbEntity
  8
compi_laser_schneiden
 62
7
100
AcDbPolyline
 90
2
 70
0
 10
545.385263
 20
160.473282
 30
0.0
 10
546.351168
 20
160.473282
 30
0.0
  0
LWPOLYLINE
  5
396
100
AcDbEntity
  8
compi_laser_schneiden
 62
7
100
AcDbPolyline
 90
2
 70
0
 10
487.435339
 20
218.424264
 30
0.0
 10
486.638767
 20
218.424264
 30
0.0
  0
LWPOLYLINE
  5
397
100
AcDbEntity
  8
compi_laser_schneiden
 62
7
100
AcDbPolyline
 90
2
 70
0
 10
545.553044
 20
218.424264
 30
0.0
 10
546.522124
 20
218.424264
 30
0.0
  0
LWPOLYLINE
  5
398
100
AcDbEntity
  8
compi_laser_schneiden
 62
7
100
AcDbPolyline
 90
2
 70
0
 10
487.444617
 20
160.473282
 30
0.0
 10
487.444617
 20
159.472805
 30
0.0
  0
LWPOLYLINE
  5
399
100
AcDbEntity
  8
compi_laser_schneiden
 62
7
100
AcDbPolyline
 90
2
 70
0
 10
545.385263
 20
160.473282
 30
0.0
 10
545.385263
 20
159.417419
 30
0.0
  0
LWPOLYLINE
  5
39a
100
AcDbEntity
  8
compi_laser_schneiden
 62
7
100
AcDbPolyline
 90
2
 70
0
 10
485.434419
 20
159.388773
 30
0.0
 10
487.444547
 20
159.472734
 30
0.0
  0
LWPOLYLINE
  5
39b
100
AcDbEntity
  8
compi_laser_schneiden
 62
7
100
AcDbPolyline
 90
2
 70
0
 10
485.434419
 20
103.848322
 30
0.0
 10
487.434669
 20
103.932635
 30
0.0
  0
LWPOLYLINE
  5
39c
100
AcDbEntity
  8
compi_laser_schneiden
 62
7
100
AcDbPolyline
 90
2
 70
0
 10
545.385968
 20
103.932706
 30
0.0
 10
547.385513
 20
104.017725
 30
0.0
  0
SPLINE
  5
39d
100
AcDbEntity
  8
compi_laser_schneiden
 62
7
100
AcDbSpline
 70
8
 71
3
 72
8
 73
4
 74
0
 40
0
 40
0
 40
0
 40
0
 40
1
 40
1
 40
1
 40
1
 10
483.509310
 20
117.076465
 30
0.0
 10
483.509310
 20
97.746360
 30
0.0
 10
467.839627
 20
82.076676
 30
0.0
 10
448.509169
 20
82.076676
 30
0.0
  0
SPLINE
  5
39e
100
AcDbEntity
  8
compi_laser_schneiden
 62
7
100
AcDbSpline
 70
8
 71
3
 72
8
 73
4
 74
0
 40
0
 40
0
 40
0
 40
0
 40
1
 40
1
 40
1
 40
1
 10
448.509169
 20
82.076676
 30
0.0
 10
429.179416
 20
82.076676
 30
0.0
 10
413.509027
 20
97.746360
 30
0.0
 10
413.509027
 20
117.076465
 30
0.0
  0
SPLINE
  5
39f
100
AcDbEntity
  8
compi_laser_schneiden
 62
7
100
AcDbSpline
 70
8
 71
3
 72
8
 73
4
 74
0
 40
0
 40
0
 40
0
 40
0
 40
1
 40
1
 40
1
 40
1
 10
413.509027
 20
117.076465
 30
0.0
 10
413.509027
 20
136.406571
 30
0.0
 10
429.179416
 20
152.076607
 30
0.0
 10
448.509169
 20
152.076607
 30
0.0
  0
SPLINE
  5
3a0
100
AcDbEntity
  8
compi_laser_schneiden
 62
7
100
AcDbSpline
 70
8
 71
3
 72
8
 73
4
 74
0
 40
0
 40
0
 40
0
 40
0
 40
1
 40
1
 40
1
 40
1
 10
448.509169
 20
152.076607
 30
0.0
 10
467.839627
 20
152.076607
 30
0.0
 10
483.509310
 20
136.406571
 30
0.0
 10
483.509310
 20
117.076465
 30
0.0
  0
LWPOLYLINE
  5
3a1
100
AcDbEntity
  8
compi_laser_schneiden
 62
7
100
AcDbPolyline
 90
2
 70
0
 10
547.385513
 20
159.371557
 30
0.0
 10
545.385263
 20
159.417419
 30
0.0
  0
LWPOLYLINE
  5
3a2
100
AcDbEntity
  8
compi_laser_schneiden
 62
7
100
AcDbPolyline
 90
2
 70
1
 10
483.509310
 20
117.076465
 30
0.0
 10
483.509310
 20
117.076465
 30
0.0
  0
LWPOLYLINE
  5
3a3
100
AcDbEntity
  8
compi_laser_schneiden
 62
2
100
AcDbPolyline
 90
6
 70
1
 10
423.827001
 20
112.075981
 30
0.0
 10
422.826523
 20
112.075981
 30
0.0
 10
422.826523
 20
122.076173
 30
0.0
 10
423.827001
 20
122.076173
 30
0.0
 10
423.827001
 20
112.075981
 30
0.0
 10
423.827001
 20
112.075981
 30
0.0
  0
LWPOLYLINE
  5
3a4
100
AcDbEntity
  8
compi_laser_schneiden
 62
2
100
AcDbPolyline
 90
6
 70
1
 10
439.028901
 20
100.139040
 30
0.0
 10
438.028423
 20
100.139040
 30
0.0
 10
438.028423
 20
110.139231
 30
0.0
 10
439.028901
 20
110.139231
 30
0.0
 10
439.028901
 20
100.139040
 30
0.0
 10
439.028901
 20
100.139040
 30
0.0
  0
LWPOLYLINE
  5
3a5
100
AcDbEntity
  8
compi_laser_schneiden
 62
2
100
AcDbPolyline
 90
6
 70
1
 10
426.954623
 20
101.817768
 30
0.0
 10
426.013412
 20
102.154671
 30
0.0
 10
429.383498
 20
111.570310
 30
0.0
 10
430.324709
 20
111.232701
 30
0.0
 10
426.954623
 20
101.817768
 30
0.0
 10
426.954623
 20
101.817768
 30
0.0
  0
LWPOLYLINE
  5
3a6
100
AcDbEntity
  8
compi_laser_schneiden
 62
2
100
AcDbPolyline
 90
6
 70
1
 10
469.025948
 20
100.608940
 30
0.0
 10
468.026176
 20
100.608940
 30
0.0
 10
468.026176
 20
110.609131
 30
0.0
 10
469.025948
 20
110.609131
 30
0.0
 10
469.025948
 20
100.608940
 30
0.0
 10
469.025948
 20
100.608940
 30
0.0
  0
LWPOLYLINE
  5
3a7
100
AcDbEntity
  8
compi_laser_schneiden
 62
2
100
AcDbPolyline
 90
6
 70
1
 10
436.541465
 20
130.201351
 30
0.0
 10
435.541693
 20
130.201351
 30
0.0
 10
435.541693
 20
140.201190
 30
0.0
 10
436.541465
 20
140.201190
 30
0.0
 10
436.541465
 20
130.201351
 30
0.0
 10
436.541465
 20
130.201351
 30
0.0
  0
LWPOLYLINE
  5
3a8
100
AcDbEntity
  8
compi_laser_schneiden
 62
2
100
AcDbPolyline
 90
6
 70
1
 10
446.874855
 20
104.274124
 30
0.0
 10
447.376505
 20
105.138783
 30
0.0
 10
456.026969
 20
100.121930
 30
0.0
 10
455.525319
 20
99.257272
 30
0.0
 10
446.874855
 20
104.274124
 30
0.0
 10
446.874855
 20
104.274124
 30
0.0
  0
LWPOLYLINE
  5
3a9
100
AcDbEntity
  8
compi_laser_schneiden
 62
2
100
AcDbPolyline
 90
6
 70
1
 10
426.543954
 20
128.022560
 30
0.0
 10
427.045604
 20
128.887571
 30
0.0
 10
435.696068
 20
123.870718
 30
0.0
 10
435.194418
 20
123.005707
 30
0.0
 10
426.543954
 20
128.022560
 30
0.0
 10
426.543954
 20
128.022560
 30
0.0
  0
LWPOLYLINE
  5
3aa
100
AcDbEntity
  8
compi_laser_schneiden
 62
2
100
AcDbPolyline
 90
6
 70
1
 10
436.874487
 20
117.576140
 30
0.0
 10
446.875032
 20
117.576140
 30
0.0
 10
446.875032
 20
116.576015
 30
0.0
 10
436.874487
 20
116.576015
 30
0.0
 10
436.874487
 20
117.576140
 30
0.0
 10
436.874487
 20
117.576140
 30
0.0
  0
LWPOLYLINE
  5
3ab
100
AcDbEntity
  8
compi_laser_schneiden
 62
2
100
AcDbPolyline
 90
6
 70
1
 10
460.426461
 20
137.537224
 30
0.0
 10
461.134133
 20
138.244543
 30
0.0
 10
468.204858
 20
131.173465
 30
0.0
 10
467.497891
 20
130.466499
 30
0.0
 10
460.426461
 20
137.537224
 30
0.0
 10
460.426461
 20
137.537224
 30
0.0
  0
LWPOLYLINE
  5
3ac
100
AcDbEntity
  8
compi_laser_schneiden
 62
2
100
AcDbPolyline
 90
6
 70
1
 10
441.874759
 20
92.678142
 30
0.0
 10
451.874598
 20
92.678142
 30
0.0
 10
451.874598
 20
91.678017
 30
0.0
 10
441.874759
 20
91.678017
 30
0.0
 10
441.874759
 20
92.678142
 30
0.0
 10
441.874759
 20
92.678142
 30
0.0
  0
LWPOLYLINE
  5
3ad
100
AcDbEntity
  8
compi_laser_schneiden
 62
2
100
AcDbPolyline
 90
6
 70
1
 10
458.687372
 20
105.249767
 30
0.0
 10
459.596833
 20
105.666044
 30
0.0
 10
463.761375
 20
96.574255
 30
0.0
 10
462.851914
 20
96.158330
 30
0.0
 10
458.687372
 20
105.249767
 30
0.0
 10
458.687372
 20
105.249767
 30
0.0
  0
LWPOLYLINE
  5
3ae
100
AcDbEntity
  8
compi_laser_schneiden
 62
2
100
AcDbPolyline
 90
6
 70
1
 10
443.224487
 20
144.043292
 30
0.0
 10
453.224326
 20
144.043292
 30
0.0
 10
453.224326
 20
143.043167
 30
0.0
 10
443.224487
 20
143.043167
 30
0.0
 10
443.224487
 20
144.043292
 30
0.0
 10
443.224487
 20
144.043292
 30
0.0
  0
LWPOLYLINE
  5
3af
100
AcDbEntity
  8
compi_laser_schneiden
 62
2
100
AcDbPolyline
 90
6
 70
1
 10
442.874532
 20
136.355559
 30
0.0
 10
452.875076
 20
136.355559
 30
0.0
 10
452.875076
 20
135.355434
 30
0.0
 10
442.874532
 20
135.355434
 30
0.0
 10
442.874532
 20
136.355559
 30
0.0
 10
442.874532
 20
136.355559
 30
0.0
  0
LWPOLYLINE
  5
3b0
100
AcDbEntity
  8
compi_laser_schneiden
 62
2
100
AcDbPolyline
 90
6
 70
1
 10
441.874759
 20
127.946748
 30
0.0
 10
451.874598
 20
127.946748
 30
0.0
 10
451.874598
 20
126.946976
 30
0.0
 10
441.874759
 20
126.946976
 30
0.0
 10
441.874759
 20
127.946748
 30
0.0
 10
441.874759
 20
127.946748
 30
0.0
  0
LWPOLYLINE
  5
3b1
100
AcDbEntity
  8
compi_laser_schneiden
 62
2
100
AcDbPolyline
 90
6
 70
1
 10
472.808784
 20
123.075945
 30
0.0
 10
473.808557
 20
123.075945
 30
0.0
 10
473.808557
 20
113.075401
 30
0.0
 10
472.808784
 20
113.075401
 30
0.0
 10
472.808784
 20
123.075945
 30
0.0
 10
472.808784
 20
123.075945
 30
0.0
  0
LWPOLYLINE
  5
3b2
100
AcDbEntity
  8
compi_laser_schneiden
 62
2
100
AcDbPolyline
 90
6
 70
1
 10
462.724279
 20
126.994601
 30
0.0
 10
463.724051
 20
126.994601
 30
0.0
 10
463.724051
 20
116.994762
 30
0.0
 10
462.724279
 20
116.994762
 30
0.0
 10
462.724279
 20
126.994601
 30
0.0
 10
462.724279
 20
126.994601
 30
0.0
  0
LWPOLYLINE
  5
3b3
100
AcDbEntity
  8
compi_laser_schneiden
 62
2
100
AcDbPolyline
 90
6
 70
1
 10
455.907201
 20
122.075820
 30
0.0
 10
456.906973
 20
122.075820
 30
0.0
 10
456.906973
 20
112.075629
 30
0.0
 10
455.907201
 20
112.075629
 30
0.0
 10
455.907201
 20
122.075820
 30
0.0
 10
455.907201
 20
122.075820
 30
0.0
  0
LWPOLYLINE
  5
3b4
100
AcDbEntity
  8
compi_laser_schneiden
 62
2
100
AcDbPolyline
 90
2
 70
0
 10
411.640469
 20
261.727384
 30
0.0
 10
411.640469
 20
286.727334
 30
0.0
  0
LWPOLYLINE
  5
3b5
100
AcDbEntity
  8
compi_laser_schneiden
 62
2
100
AcDbPolyline
 90
2
 70
0
 10
472.353384
 20
256.727888
 30
0.0
 10
415.352961
 20
256.727888
 30
0.0
  0
LWPOLYLINE
  5
3b6
100
AcDbEntity
  8
compi_laser_schneiden
 62
2
100
AcDbPolyline
 90
6
 70
0
 10
415.352891
 20
286.727581
 30
0.0
 10
415.352891
 20
291.727500
 30
0.0
 10
472.352607
 20
291.727500
 30
0.0
 10
472.352607
 20
286.727581
 30
0.0
 10
476.022555
 20
286.727581
 30
0.0
 10
476.022555
 20
261.727278
 30
0.0
  0
LWPOLYLINE
  5
3b7
100
AcDbEntity
  8
compi_laser_schneiden
 62
2
100
AcDbPolyline
 90
2
 70
0
 10
411.640469
 20
286.727404
 30
0.0
 10
415.352750
 20
286.727404
 30
0.0
  0
LWPOLYLINE
  5
3b8
100
AcDbEntity
  8
compi_laser_schneiden
 62
2
100
AcDbPolyline
 90
2
 70
0
 10
411.640469
 20
261.727384
 30
0.0
 10
415.352750
 20
261.727384
 30
0.0
  0
LWPOLYLINE
  5
3b9
100
AcDbEntity
  8
compi_laser_schneiden
 62
2
100
AcDbPolyline
 90
2
 70
0
 10
415.352891
 20
261.727384
 30
0.0
 10
415.352891
 20
256.727817
 30
0.0
  0
LWPOLYLINE
  5
3ba
100
AcDbEntity
  8
compi_laser_schneiden
 62
2
100
AcDbPolyline
 90
3
 70
0
 10
472.353384
 20
256.727535
 30
0.0
 10
472.353384
 20
261.727454
 30
0.0
 10
476.022272
 20
261.727384
 30
0.0
  0
LWPOLYLINE
  5
3bb
100
AcDbEntity
  8
compi_laser_schneiden
 62
2
100
AcDbPolyline
 90
3
 70
0
 10
472.353384
 20
256.727888
 30
0.0
 10
472.353384
 20
261.727454
 30
0.0
 10
476.022272
 20
261.727384
 30
0.0
  0
SPLINE
  5
3bc
100
AcDbEntity
  8
compi_laser_schneiden
 62
2
100
AcDbSpline
 70
8
 71
3
 72
8
 73
4
 74
0
 40
0
 40
0
 40
0
 40
0
 40
1
 40
1
 40
1
 40
1
 10
446.103154
 20
263.727634
 30
0.0
 10
446.103154
 20
262.485150
 30
0.0
 10
445.095620
 20
261.477264
 30
0.0
 10
443.852784
 20
261.477264
 30
0.0
  0
SPLINE
  5
3bd
100
AcDbEntity
  8
compi_laser_schneiden
 62
2
100
AcDbSpline
 70
8
 71
3
 72
8
 73
4
 74
0
 40
0
 40
0
 40
0
 40
0
 40
1
 40
1
 40
1
 40
1
 10
443.852784
 20
261.477264
 30
0.0
 10
442.610301
 20
261.477264
 30
0.0
 10
441.603120
 20
262.485150
 30
0.0
 10
441.603120
 20
263.727634
 30
0.0
  0
SPLINE
  5
3be
100
AcDbEntity
  8
compi_laser_schneiden
 62
2
100
AcDbSpline
 70
8
 71
3
 72
8
 73
4
 74
0
 40
0
 40
0
 40
0
 40
0
 40
1
 40
1
 40
1
 40
1
 10
441.603120
 20
263.727634
 30
0.0
 10
441.603120
 20
264.970117
 30
0.0
 10
442.610301
 20
265.977650
 30
0.0
 10
443.852784
 20
265.977650
 30
0.0
  0
SPLINE
  5
3bf
100
AcDbEntity
  8
compi_laser_schneiden
 62
2
100
AcDbSpline
 70
8
 71
3
 72
8
 73
4
 74
0
 40
0
 40
0
 40
0
 40
0
 40
1
 40
1
 40
1
 40
1
 10
443.852784
 20
265.977650
 30
0.0
 10
445.095620
 20
265.977650
 30
0.0
 10
446.103154
 20
264.970117
 30
0.0
 10
446.103154
 20
263.727634
 30
0.0
  0
LWPOLYLINE
  5
3c0
100
AcDbEntity
  8
compi_laser_schneiden
 62
2
100
AcDbPolyline
 90
2
 70
0
 10
443.852784
 20
291.727641
 30
0.0
 10
443.852784
 20
284.687255
 30
0.0
  0
LWPOLYLINE
  5
3c1
100
AcDbEntity
  8
compi_laser_schneiden
 62
2
100
AcDbPolyline
 90
2
 70
1
 10
446.103154
 20
263.727634
 30
0.0
 10
446.103154
 20
263.727634
 30
0.0
  0
LWPOLYLINE
  5
3c2
100
AcDbEntity
  8
compi_laser_schneiden
 62
2
100
AcDbPolyline
 90
6
 70
1
 10
431.353162
 20
271.727329
 30
0.0
 10
428.353140
 20
271.727329
 30
0.0
 10
428.353140
 20
276.727248
 30
0.0
 10
431.353162
 20
276.727248
 30
0.0
 10
431.353162
 20
271.727329
 30
0.0
 10
431.353162
 20
271.727329
 30
0.0
  0
LWPOLYLINE
  5
3c3
100
AcDbEntity
  8
compi_laser_schneiden
 62
2
100
AcDbPolyline
 90
6
 70
1
 10
459.353134
 20
271.727329
 30
0.0
 10
456.353112
 20
271.727329
 30
0.0
 10
456.353112
 20
276.727248
 30
0.0
 10
459.353134
 20
276.727248
 30
0.0
 10
459.353134
 20
271.727329
 30
0.0
 10
459.353134
 20
271.727329
 30
0.0
  0
LWPOLYLINE
  5
3c4
100
AcDbEntity
  8
compi_laser_schneiden
 62
2
100
AcDbPolyline
 90
6
 70
1
 10
468.853087
 20
249.913315
 30
0.0
 10
418.853187
 20
249.913315
 30
0.0
 10
418.853187
 20
254.913587
 30
0.0
 10
468.853087
 20
254.913587
 30
0.0
 10
468.853087
 20
249.913315
 30
0.0
 10
468.853087
 20
249.913315
 30
0.0
  0
LWPOLYLINE
  5
3c5
100
AcDbEntity
  8
compi_laser_schneiden
 62
7
100
AcDbPolyline
 90
4
 70
0
 10
467.092020
 20
233.390791
 30
0.0
 10
467.092020
 20
224.890610
 30
0.0
 10
420.091437
 20
224.890963
 30
0.0
 10
420.091437
 20
231.925705
 30
0.0
  0
LWPOLYLINE
  5
3c6
100
AcDbEntity
  8
compi_laser_schneiden
 62
7
100
AcDbPolyline
 90
4
 70
0
 10
420.091296
 20
237.845316
 30
0.0
 10
420.091296
 20
244.890994
 30
0.0
 10
467.091879
 20
244.890994
 30
0.0
 10
467.091879
 20
236.390813
 30
0.0
  0
LWPOLYLINE
  5
3c7
100
AcDbEntity
  8
compi_laser_schneiden
 62
7
100
AcDbPolyline
 90
4
 70
0
 10
467.092020
 20
236.390778
 30
0.0
 10
470.092043
 20
236.390778
 30
0.0
 10
470.092043
 20
233.390756
 30
0.0
 10
467.092020
 20
233.390756
 30
0.0
  0
LWPOLYLINE
  5
3c8
100
AcDbEntity
  8
compi_laser_schneiden
 62
7
100
AcDbPolyline
 90
6
 70
1
 10
421.135307
 20
236.390990
 30
0.0
 10
422.135784
 20
236.390990
 30
0.0
 10
422.135784
 20
233.390967
 30
0.0
 10
421.135307
 20
233.390967
 30
0.0
 10
421.135307
 20
236.390990
 30
0.0
 10
421.135307
 20
236.390990
 30
0.0
  0
LWPOLYLINE
  5
3c9
100
AcDbEntity
  8
compi_laser_schneiden
 62
7
100
AcDbPolyline
 90
2
 70
0
 10
420.135393
 20
231.936288
 30
0.0
 10
417.349154
 20
231.925705
 30
0.0
  0
SPLINE
  5
3ca
100
AcDbEntity
  8
compi_laser_schneiden
 62
7
100
AcDbSpline
 70
8
 71
3
 72
8
 73
4
 74
0
 40
0
 40
0
 40
0
 40
0
 40
1
 40
1
 40
1
 40
1
 10
417.348978
 20
231.930750
 30
0.0
 10
415.672578
 20
231.930750
 30
0.0
 10
414.313325
 20
233.255783
 30
0.0
 10
414.313325
 20
234.891261
 30
0.0
  0
SPLINE
  5
3cb
100
AcDbEntity
  8
compi_laser_schneiden
 62
7
100
AcDbSpline
 70
8
 71
3
 72
8
 73
4
 74
0
 40
0
 40
0
 40
0
 40
0
 40
1
 40
1
 40
1
 40
1
 10
414.313325
 20
234.891261
 30
0.0
 10
414.313325
 20
236.526386
 30
0.0
 10
415.672578
 20
237.851419
 30
0.0
 10
417.348978
 20
237.851419
 30
0.0
  0
SPLINE
  5
3cc
100
AcDbEntity
  8
compi_laser_schneiden
 62
7
100
AcDbSpline
 70
8
 71
3
 72
8
 73
4
 74
0
 40
0
 40
0
 40
0
 40
0
 40
1
 40
1
 40
1
 40
1
 10
417.836129
 20
233.947510
 30
0.0
 10
417.315076
 20
233.947510
 30
0.0
 10
416.893507
 20
234.369785
 30
0.0
 10
416.893507
 20
234.890485
 30
0.0
  0
SPLINE
  5
3cd
100
AcDbEntity
  8
compi_laser_schneiden
 62
7
100
AcDbSpline
 70
8
 71
3
 72
8
 73
4
 74
0
 40
0
 40
0
 40
0
 40
0
 40
1
 40
1
 40
1
 40
1
 10
416.893507
 20
234.890485
 30
0.0
 10
416.893507
 20
235.411185
 30
0.0
 10
417.315076
 20
235.833812
 30
0.0
 10
417.836129
 20
235.833812
 30
0.0
  0
SPLINE
  5
3ce
100
AcDbEntity
  8
compi_laser_schneiden
 62
7
100
AcDbSpline
 70
8
 71
3
 72
8
 73
4
 74
0
 40
0
 40
0
 40
0
 40
0
 40
1
 40
1
 40
1
 40
1
 10
417.836129
 20
235.833812
 30
0.0
 10
418.357182
 20
235.833812
 30
0.0
 10
418.778751
 20
235.411185
 30
0.0
 10
418.778751
 20
234.890485
 30
0.0
  0
SPLINE
  5
3cf
100
AcDbEntity
  8
compi_laser_schneiden
 62
7
100
AcDbSpline
 70
8
 71
3
 72
8
 73
4
 74
0
 40
0
 40
0
 40
0
 40
0
 40
1
 40
1
 40
1
 40
1
 10
418.778751
 20
234.890485
 30
0.0
 10
418.778751
 20
234.369785
 30
0.0
 10
418.357182
 20
233.947510
 30
0.0
 10
417.836129
 20
233.947510
 30
0.0
  0
LWPOLYLINE
  5
3d0
100
AcDbEntity
  8
compi_laser_schneiden
 62
7
100
AcDbPolyline
 90
2
 70
0
 10
417.348978
 20
237.834627
 30
0.0
 10
420.135217
 20
237.845210
 30
0.0
  0
SPLINE
  5
3d1
100
AcDbEntity
  8
compi_laser_schneiden
 62
7
100
AcDbSpline
 70
8
 71
3
 72
8
 73
4
 74
0
 40
0
 40
0
 40
0
 40
0
 40
1
 40
1
 40
1
 40
1
 10
536.244402
 20
283.876960
 30
0.0
 10
535.722997
 20
283.876960
 30
0.0
 10
535.301427
 20
284.299235
 30
0.0
 10
535.301427
 20
284.819582
 30
0.0
  0
SPLINE
  5
3d2
100
AcDbEntity
  8
compi_laser_schneiden
 62
7
100
AcDbSpline
 70
8
 71
3
 72
8
 73
4
 74
0
 40
0
 40
0
 40
0
 40
0
 40
1
 40
1
 40
1
 40
1
 10
535.301427
 20
284.819582
 30
0.0
 10
535.301427
 20
285.340635
 30
0.0
 10
535.722997
 20
285.763263
 30
0.0
 10
536.244402
 20
285.763263
 30
0.0
  0
SPLINE
  5
3d3
100
AcDbEntity
  8
compi_laser_schneiden
 62
7
100
AcDbSpline
 70
8
 71
3
 72
8
 73
4
 74
0
 40
0
 40
0
 40
0
 40
0
 40
1
 40
1
 40
1
 40
1
 10
536.244402
 20
285.763263
 30
0.0
 10
536.765808
 20
285.763263
 30
0.0
 10
537.187377
 20
285.340635
 30
0.0
 10
537.187377
 20
284.819582
 30
0.0
  0
SPLINE
  5
3d4
100
AcDbEntity
  8
compi_laser_schneiden
 62
7
100
AcDbSpline
 70
8
 71
3
 72
8
 73
4
 74
0
 40
0
 40
0
 40
0
 40
0
 40
1
 40
1
 40
1
 40
1
 10
537.187377
 20
284.819582
 30
0.0
 10
537.187377
 20
284.299235
 30
0.0
 10
536.765808
 20
283.876960
 30
0.0
 10
536.244402
 20
283.876960
 30
0.0
  0
LWPOLYLINE
  5
3d5
100
AcDbEntity
  8
compi_laser_schneiden
 62
7
100
AcDbPolyline
 90
2
 70
1
 10
417.836129
 20
233.947510
 30
0.0
 10
417.836129
 20
233.947510
 30
0.0
  0
SPLINE
  5
3d6
100
AcDbEntity
  8
compi_laser_schneiden
 62
7
100
AcDbSpline
 70
8
 71
3
 72
8
 73
4
 74
0
 40
0
 40
0
 40
0
 40
0
 40
1
 40
1
 40
1
 40
1
 10
589.237551
 20
286.497464
 30
0.0
 10
588.716146
 20
286.497464
 30
0.0
 10
588.294576
 20
286.919739
 30
0.0
 10
588.294576
 20
287.440086
 30
0.0
  0
SPLINE
  5
3d7
100
AcDbEntity
  8
compi_laser_schneiden
 62
7
100
AcDbSpline
 70
8
 71
3
 72
8
 73
4
 74
0
 40
0
 40
0
 40
0
 40
0
 40
1
 40
1
 40
1
 40
1
 10
588.294576
 20
287.440086
 30
0.0
 10
588.294576
 20
287.961139
 30
0.0
 10
588.716146
 20
288.383767
 30
0.0
 10
589.237551
 20
288.383767
 30
0.0
  0
SPLINE
  5
3d8
100
AcDbEntity
  8
compi_laser_schneiden
 62
7
100
AcDbSpline
 70
8
 71
3
 72
8
 73
4
 74
0
 40
0
 40
0
 40
0
 40
0
 40
1
 40
1
 40
1
 40
1
 10
589.237551
 20
288.383767
 30
0.0
 10
589.758957
 20
288.383767
 30
0.0
 10
590.180526
 20
287.961139
 30
0.0
 10
590.180526
 20
287.440086
 30
0.0
  0
SPLINE
  5
3d9
100
AcDbEntity
  8
compi_laser_schneiden
 62
7
100
AcDbSpline
 70
8
 71
3
 72
8
 73
4
 74
0
 40
0
 40
0
 40
0
 40
0
 40
1
 40
1
 40
1
 40
1
 10
590.180526
 20
287.440086
 30
0.0
 10
590.180526
 20
286.919739
 30
0.0
 10
589.758957
 20
286.497464
 30
0.0
 10
589.237551
 20
286.497464
 30
0.0
  0
LWPOLYLINE
  5
3da
100
AcDbEntity
  8
compi_laser_schneiden
 62
7
100
AcDbPolyline
 90
2
 70
1
 10
536.244402
 20
283.876960
 30
0.0
 10
536.244402
 20
283.876960
 30
0.0
  0
SPLINE
  5
3db
100
AcDbEntity
  8
compi_laser_schneiden
 62
7
100
AcDbSpline
 70
8
 71
3
 72
8
 73
4
 74
0
 40
0
 40
0
 40
0
 40
0
 40
1
 40
1
 40
1
 40
1
 10
570.750832
 20
504.605923
 30
0.0
 10
570.229426
 20
504.605923
 30
0.0
 10
569.807857
 20
505.028198
 30
0.0
 10
569.807857
 20
505.548545
 30
0.0
  0
SPLINE
  5
3dc
100
AcDbEntity
  8
compi_laser_schneiden
 62
7
100
AcDbSpline
 70
8
 71
3
 72
8
 73
4
 74
0
 40
0
 40
0
 40
0
 40
0
 40
1
 40
1
 40
1
 40
1
 10
569.807857
 20
505.548545
 30
0.0
 10
569.807857
 20
506.069598
 30
0.0
 10
570.229426
 20
506.492226
 30
0.0
 10
570.750832
 20
506.492226
 30
0.0
  0
SPLINE
  5
3dd
100
AcDbEntity
  8
compi_laser_schneiden
 62
7
100
AcDbSpline
 70
8
 71
3
 72
8
 73
4
 74
0
 40
0
 40
0
 40
0
 40
0
 40
1
 40
1
 40
1
 40
1
 10
570.750832
 20
506.492226
 30
0.0
 10
571.272237
 20
506.492226
 30
0.0
 10
571.693807
 20
506.069598
 30
0.0
 10
571.693807
 20
505.548545
 30
0.0
  0
SPLINE
  5
3de
100
AcDbEntity
  8
compi_laser_schneiden
 62
7
100
AcDbSpline
 70
8
 71
3
 72
8
 73
4
 74
0
 40
0
 40
0
 40
0
 40
0
 40
1
 40
1
 40
1
 40
1
 10
571.693807
 20
505.548545
 30
0.0
 10
571.693807
 20
505.028198
 30
0.0
 10
571.272237
 20
504.605923
 30
0.0
 10
570.750832
 20
504.605923
 30
0.0
  0
LWPOLYLINE
  5
3df
100
AcDbEntity
  8
compi_laser_schneiden
 62
7
100
AcDbPolyline
 90
2
 70
1
 10
589.237551
 20
286.497464
 30
0.0
 10
589.237551
 20
286.497464
 30
0.0
  0
SPLINE
  5
3e0
100
AcDbEntity
  8
compi_laser_schneiden
 62
7
100
AcDbSpline
 70
8
 71
3
 72
8
 73
4
 74
0
 40
0
 40
0
 40
0
 40
0
 40
1
 40
1
 40
1
 40
1
 10
526.090682
 20
283.876960
 30
0.0
 10
525.569276
 20
283.876960
 30
0.0
 10
525.147707
 20
284.299235
 30
0.0
 10
525.147707
 20
284.819582
 30
0.0
  0
SPLINE
  5
3e1
100
AcDbEntity
  8
compi_laser_schneiden
 62
7
100
AcDbSpline
 70
8
 71
3
 72
8
 73
4
 74
0
 40
0
 40
0
 40
0
 40
0
 40
1
 40
1
 40
1
 40
1
 10
525.147707
 20
284.819582
 30
0.0
 10
525.147707
 20
285.340635
 30
0.0
 10
525.569276
 20
285.763263
 30
0.0
 10
526.090682
 20
285.763263
 30
0.0
  0
SPLINE
  5
3e2
100
AcDbEntity
  8
compi_laser_schneiden
 62
7
100
AcDbSpline
 70
8
 71
3
 72
8
 73
4
 74
0
 40
0
 40
0
 40
0
 40
0
 40
1
 40
1
 40
1
 40
1
 10
526.090682
 20
285.763263
 30
0.0
 10
526.611735
 20
285.763263
 30
0.0
 10
527.033304
 20
285.340635
 30
0.0
 10
527.033304
 20
284.819582
 30
0.0
  0
SPLINE
  5
3e3
100
AcDbEntity
  8
compi_laser_schneiden
 62
7
100
AcDbSpline
 70
8
 71
3
 72
8
 73
4
 74
0
 40
0
 40
0
 40
0
 40
0
 40
1
 40
1
 40
1
 40
1
 10
527.033304
 20
284.819582
 30
0.0
 10
527.033304
 20
284.299235
 30
0.0
 10
526.611735
 20
283.876960
 30
0.0
 10
526.090682
 20
283.876960
 30
0.0
  0
LWPOLYLINE
  5
3e4
100
AcDbEntity
  8
compi_laser_schneiden
 62
7
100
AcDbPolyline
 90
2
 70
1
 10
570.750832
 20
504.605923
 30
0.0
 10
570.750832
 20
504.605923
 30
0.0
  0
LWPOLYLINE
  5
3e5
100
AcDbEntity
  8
compi_laser_schneiden
 62
7
100
AcDbPolyline
 90
2
 70
1
 10
526.090682
 20
283.876960
 30
0.0
 10
526.090682
 20
283.876960
 30
0.0
  0
SPLINE
  5
3e6
100
AcDbEntity
  8
compi_laser_schneiden
 62
7
100
AcDbSpline
 70
8
 71
3
 72
8
 73
4
 74
0
 40
0
 40
0
 40
0
 40
0
 40
1
 40
1
 40
1
 40
1
 10
177.542957
 20
549.142742
 30
0.0
 10
177.542957
 20
568.472847
 30
0.0
 10
193.213345
 20
584.142884
 30
0.0
 10
212.543098
 20
584.142884
 30
0.0
  0
SPLINE
  5
3e7
100
AcDbEntity
  8
compi_laser_schneiden
 62
7
100
AcDbSpline
 70
8
 71
3
 72
8
 73
4
 74
0
 40
0
 40
0
 40
0
 40
0
 40
1
 40
1
 40
1
 40
1
 10
212.543098
 20
584.142884
 30
0.0
 10
231.872851
 20
584.142884
 30
0.0
 10
247.543240
 20
568.472847
 30
0.0
 10
247.543240
 20
549.142742
 30
0.0
  0
SPLINE
  5
3e8
100
AcDbEntity
  8
compi_laser_schneiden
 62
7
100
AcDbSpline
 70
8
 71
3
 72
8
 73
4
 74
0
 40
0
 40
0
 40
0
 40
0
 40
1
 40
1
 40
1
 40
1
 10
247.543240
 20
549.142742
 30
0.0
 10
247.543240
 20
529.812989
 30
0.0
 10
231.872851
 20
514.142953
 30
0.0
 10
212.543098
 20
514.142953
 30
0.0
  0
SPLINE
  5
3e9
100
AcDbEntity
  8
compi_laser_schneiden
 62
7
100
AcDbSpline
 70
8
 71
3
 72
8
 73
4
 74
0
 40
0
 40
0
 40
0
 40
0
 40
1
 40
1
 40
1
 40
1
 10
212.543098
 20
514.142953
 30
0.0
 10
193.213345
 20
514.142953
 30
0.0
 10
177.542957
 20
529.812989
 30
0.0
 10
177.542957
 20
549.142742
 30
0.0
  0
LWPOLYLINE
  5
3ea
100
AcDbEntity
  8
compi_laser_schneiden
 62
7
100
AcDbPolyline
 90
6
 70
1
 10
433.091651
 20
239.890898
 30
0.0
 10
452.091204
 20
239.890898
 30
0.0
 10
452.091204
 20
229.891059
 30
0.0
 10
433.091651
 20
229.891059
 30
0.0
 10
433.091651
 20
239.890898
 30
0.0
 10
433.091651
 20
239.890898
 30
0.0
  0
LWPOLYLINE
  5
3eb
100
AcDbEntity
  8
compi_laser_schneiden
 62
7
100
AcDbPolyline
 90
2
 70
1
 10
177.542957
 20
549.142742
 30
0.0
 10
177.542957
 20
549.142742
 30
0.0
  0
LWPOLYLINE
  5
3ec
100
AcDbEntity
  8
compi_laser_schneiden
 62
2
100
AcDbPolyline
 90
6
 70
1
 10
237.225901
 20
554.143579
 30
0.0
 10
238.225673
 20
554.143579
 30
0.0
 10
238.225673
 20
544.143034
 30
0.0
 10
237.225901
 20
544.143034
 30
0.0
 10
237.225901
 20
554.143579
 30
0.0
 10
237.225901
 20
554.143579
 30
0.0
  0
LWPOLYLINE
  5
3ed
100
AcDbEntity
  8
compi_laser_schneiden
 62
2
100
AcDbPolyline
 90
6
 70
1
 10
222.024001
 20
566.080520
 30
0.0
 10
223.023773
 20
566.080520
 30
0.0
 10
223.023773
 20
556.080681
 30
0.0
 10
222.024001
 20
556.080681
 30
0.0
 10
222.024001
 20
566.080520
 30
0.0
 10
222.024001
 20
566.080520
 30
0.0
  0
LWPOLYLINE
  5
3ee
100
AcDbEntity
  8
compi_laser_schneiden
 62
2
100
AcDbPolyline
 90
6
 70
1
 10
234.097644
 20
564.401439
 30
0.0
 10
235.039561
 20
564.064536
 30
0.0
 10
231.668769
 20
554.649250
 30
0.0
 10
230.727558
 20
554.986506
 30
0.0
 10
234.097644
 20
564.401439
 30
0.0
 10
234.097644
 20
564.401439
 30
0.0
  0
LWPOLYLINE
  5
3ef
100
AcDbEntity
  8
compi_laser_schneiden
 62
2
100
AcDbPolyline
 90
6
 70
1
 10
192.026248
 20
565.610620
 30
0.0
 10
193.026726
 20
565.610620
 30
0.0
 10
193.026726
 20
555.610781
 30
0.0
 10
192.026248
 20
555.610781
 30
0.0
 10
192.026248
 20
565.610620
 30
0.0
 10
192.026248
 20
565.610620
 30
0.0
  0
LWPOLYLINE
  5
3f0
100
AcDbEntity
  8
compi_laser_schneiden
 62
2
100
AcDbPolyline
 90
6
 70
1
 10
224.510732
 20
536.018209
 30
0.0
 10
225.510504
 20
536.018209
 30
0.0
 10
225.510504
 20
526.018017
 30
0.0
 10
224.510732
 20
526.018017
 30
0.0
 10
224.510732
 20
536.018209
 30
0.0
 10
224.510732
 20
536.018209
 30
0.0
  0
LWPOLYLINE
  5
3f1
100
AcDbEntity
  8
compi_laser_schneiden
 62
2
100
AcDbPolyline
 90
6
 70
1
 10
214.178117
 20
561.945435
 30
0.0
 10
213.676467
 20
561.080424
 30
0.0
 10
205.025298
 20
566.097277
 30
0.0
 10
205.526948
 20
566.961935
 30
0.0
 10
214.178117
 20
561.945435
 30
0.0
 10
214.178117
 20
561.945435
 30
0.0
  0
LWPOLYLINE
  5
3f2
100
AcDbEntity
  8
compi_laser_schneiden
 62
2
100
AcDbPolyline
 90
6
 70
1
 10
234.508313
 20
538.197000
 30
0.0
 10
234.006663
 20
537.331636
 30
0.0
 10
225.356199
 20
542.348489
 30
0.0
 10
225.857849
 20
543.213500
 30
0.0
 10
234.508313
 20
538.197000
 30
0.0
 10
234.508313
 20
538.197000
 30
0.0
  0
LWPOLYLINE
  5
3f3
100
AcDbEntity
  8
compi_laser_schneiden
 62
2
100
AcDbPolyline
 90
6
 70
1
 10
224.177709
 20
548.643067
 30
0.0
 10
214.177870
 20
548.643067
 30
0.0
 10
214.177870
 20
549.643192
 30
0.0
 10
224.177709
 20
549.643192
 30
0.0
 10
224.177709
 20
548.643067
 30
0.0
 10
224.177709
 20
548.643067
 30
0.0
  0
LWPOLYLINE
  5
3f4
100
AcDbEntity
  8
compi_laser_schneiden
 62
2
100
AcDbPolyline
 90
6
 70
1
 10
200.625771
 20
528.681984
 30
0.0
 10
199.918804
 20
527.975017
 30
0.0
 10
192.847374
 20
535.046095
 30
0.0
 10
193.554340
 20
535.753061
 30
0.0
 10
200.625771
 20
528.681984
 30
0.0
 10
200.625771
 20
528.681984
 30
0.0
  0
LWPOLYLINE
  5
3f5
100
AcDbEntity
  8
compi_laser_schneiden
 62
2
100
AcDbPolyline
 90
6
 70
1
 10
219.177790
 20
573.541065
 30
0.0
 10
209.177951
 20
573.541065
 30
0.0
 10
209.177951
 20
574.540837
 30
0.0
 10
219.177790
 20
574.540837
 30
0.0
 10
219.177790
 20
573.541065
 30
0.0
 10
219.177790
 20
573.541065
 30
0.0
  0
LWPOLYLINE
  5
3f6
100
AcDbEntity
  8
compi_laser_schneiden
 62
2
100
AcDbPolyline
 90
6
 70
1
 10
202.364860
 20
560.969758
 30
0.0
 10
201.456104
 20
560.553480
 30
0.0
 10
197.290857
 20
569.644916
 30
0.0
 10
198.200318
 20
570.061194
 30
0.0
 10
202.364860
 20
560.969758
 30
0.0
 10
202.364860
 20
560.969758
 30
0.0
  0
LWPOLYLINE
  5
3f7
100
AcDbEntity
  8
compi_laser_schneiden
 62
2
100
AcDbPolyline
 90
6
 70
1
 10
217.827709
 20
522.176267
 30
0.0
 10
207.827870
 20
522.176267
 30
0.0
 10
207.827870
 20
523.176040
 30
0.0
 10
217.827709
 20
523.176040
 30
0.0
 10
217.827709
 20
522.176267
 30
0.0
 10
217.827709
 20
522.176267
 30
0.0
  0
LWPOLYLINE
  5
3f8
100
AcDbEntity
  8
compi_laser_schneiden
 62
2
100
AcDbPolyline
 90
6
 70
1
 10
218.178018
 20
529.864001
 30
0.0
 10
208.178179
 20
529.864001
 30
0.0
 10
208.178179
 20
530.864126
 30
0.0
 10
218.178018
 20
530.864126
 30
0.0
 10
218.178018
 20
529.864001
 30
0.0
 10
218.178018
 20
529.864001
 30
0.0
  0
LWPOLYLINE
  5
3f9
100
AcDbEntity
  8
compi_laser_schneiden
 62
2
100
AcDbPolyline
 90
6
 70
1
 10
219.177790
 20
538.272812
 30
0.0
 10
209.177951
 20
538.272812
 30
0.0
 10
209.177951
 20
539.272584
 30
0.0
 10
219.177790
 20
539.272584
 30
0.0
 10
219.177790
 20
538.272812
 30
0.0
 10
219.177790
 20
538.272812
 30
0.0
  0
LWPOLYLINE
  5
3fa
100
AcDbEntity
  8
compi_laser_schneiden
 62
2
100
AcDbPolyline
 90
6
 70
1
 10
188.244118
 20
543.143615
 30
0.0
 10
187.243640
 20
543.143615
 30
0.0
 10
187.243640
 20
553.143806
 30
0.0
 10
188.244118
 20
553.143806
 30
0.0
 10
188.244118
 20
543.143615
 30
0.0
 10
188.244118
 20
543.143615
 30
0.0
  0
LWPOLYLINE
  5
3fb
100
AcDbEntity
  8
compi_laser_schneiden
 62
2
100
AcDbPolyline
 90
6
 70
1
 10
198.327918
 20
539.224606
 30
0.0
 10
197.328145
 20
539.224606
 30
0.0
 10
197.328145
 20
549.224798
 30
0.0
 10
198.327918
 20
549.224798
 30
0.0
 10
198.327918
 20
539.224606
 30
0.0
 10
198.327918
 20
539.224606
 30
0.0
  0
SPLINE
  5
3fc
100
AcDbEntity
  8
compi_laser_schneiden
 62
7
100
AcDbSpline
 70
8
 71
3
 72
8
 73
4
 74
0
 40
0
 40
0
 40
0
 40
0
 40
1
 40
1
 40
1
 40
1
 10
251.062833
 20
549.142742
 30
0.0
 10
251.062833
 20
568.472847
 30
0.0
 10
266.733222
 20
584.142884
 30
0.0
 10
286.062975
 20
584.142884
 30
0.0
  0
SPLINE
  5
3fd
100
AcDbEntity
  8
compi_laser_schneiden
 62
7
100
AcDbSpline
 70
8
 71
3
 72
8
 73
4
 74
0
 40
0
 40
0
 40
0
 40
0
 40
1
 40
1
 40
1
 40
1
 10
286.062975
 20
584.142884
 30
0.0
 10
305.392728
 20
584.142884
 30
0.0
 10
321.063117
 20
568.472847
 30
0.0
 10
321.063117
 20
549.142742
 30
0.0
  0
SPLINE
  5
3fe
100
AcDbEntity
  8
compi_laser_schneiden
 62
7
100
AcDbSpline
 70
8
 71
3
 72
8
 73
4
 74
0
 40
0
 40
0
 40
0
 40
0
 40
1
 40
1
 40
1
 40
1
 10
321.063117
 20
549.142742
 30
0.0
 10
321.063117
 20
529.812989
 30
0.0
 10
305.392728
 20
514.142953
 30
0.0
 10
286.062975
 20
514.142953
 30
0.0
  0
SPLINE
  5
3ff
100
AcDbEntity
  8
compi_laser_schneiden
 62
7
100
AcDbSpline
 70
8
 71
3
 72
8
 73
4
 74
0
 40
0
 40
0
 40
0
 40
0
 40
1
 40
1
 40
1
 40
1
 10
286.062975
 20
514.142953
 30
0.0
 10
266.733222
 20
514.142953
 30
0.0
 10
251.062833
 20
529.812989
 30
0.0
 10
251.062833
 20
549.142742
 30
0.0
  0
LWPOLYLINE
  5
400
100
AcDbEntity
  8
compi_laser_schneiden
 62
2
100
AcDbPolyline
 90
6
 70
1
 10
205.144995
 20
544.143387
 30
0.0
 10
204.145223
 20
544.143387
 30
0.0
 10
204.145223
 20
554.143931
 30
0.0
 10
205.144995
 20
554.143931
 30
0.0
 10
205.144995
 20
544.143387
 30
0.0
 10
205.144995
 20
544.143387
 30
0.0
  0
LWPOLYLINE
  5
401
100
AcDbEntity
  8
compi_laser_schneiden
 62
7
100
AcDbPolyline
 90
2
 70
1
 10
251.062833
 20
549.142742
 30
0.0
 10
251.062833
 20
549.142742
 30
0.0
  0
LWPOLYLINE
  5
402
100
AcDbEntity
  8
compi_laser_schneiden
 62
2
100
AcDbPolyline
 90
6
 70
1
 10
310.745848
 20
554.143579
 30
0.0
 10
311.745620
 20
554.143579
 30
0.0
 10
311.745620
 20
544.143034
 30
0.0
 10
310.745848
 20
544.143034
 30
0.0
 10
310.745848
 20
554.143579
 30
0.0
 10
310.745848
 20
554.143579
 30
0.0
  0
LWPOLYLINE
  5
403
100
AcDbEntity
  8
compi_laser_schneiden
 62
2
100
AcDbPolyline
 90
6
 70
1
 10
295.543948
 20
566.080520
 30
0.0
 10
296.543720
 20
566.080520
 30
0.0
 10
296.543720
 20
556.080681
 30
0.0
 10
295.543948
 20
556.080681
 30
0.0
 10
295.543948
 20
566.080520
 30
0.0
 10
295.543948
 20
566.080520
 30
0.0
  0
LWPOLYLINE
  5
404
100
AcDbEntity
  8
compi_laser_schneiden
 62
2
100
AcDbPolyline
 90
6
 70
1
 10
307.617521
 20
564.401439
 30
0.0
 10
308.559437
 20
564.064536
 30
0.0
 10
305.188646
 20
554.649250
 30
0.0
 10
304.247435
 20
554.986506
 30
0.0
 10
307.617521
 20
564.401439
 30
0.0
 10
307.617521
 20
564.401439
 30
0.0
  0
LWPOLYLINE
  5
405
100
AcDbEntity
  8
compi_laser_schneiden
 62
2
100
AcDbPolyline
 90
6
 70
1
 10
265.546195
 20
565.610620
 30
0.0
 10
266.546673
 20
565.610620
 30
0.0
 10
266.546673
 20
555.610781
 30
0.0
 10
265.546195
 20
555.610781
 30
0.0
 10
265.546195
 20
565.610620
 30
0.0
 10
265.546195
 20
565.610620
 30
0.0
  0
LWPOLYLINE
  5
406
100
AcDbEntity
  8
compi_laser_schneiden
 62
2
100
AcDbPolyline
 90
6
 70
1
 10
298.030679
 20
536.018209
 30
0.0
 10
299.030451
 20
536.018209
 30
0.0
 10
299.030451
 20
526.018017
 30
0.0
 10
298.030679
 20
526.018017
 30
0.0
 10
298.030679
 20
536.018209
 30
0.0
 10
298.030679
 20
536.018209
 30
0.0
  0
LWPOLYLINE
  5
407
100
AcDbEntity
  8
compi_laser_schneiden
 62
2
100
AcDbPolyline
 90
6
 70
1
 10
287.697994
 20
561.945435
 30
0.0
 10
287.196344
 20
561.080424
 30
0.0
 10
278.545175
 20
566.097277
 30
0.0
 10
279.046825
 20
566.961935
 30
0.0
 10
287.697994
 20
561.945435
 30
0.0
 10
287.697994
 20
561.945435
 30
0.0
  0
LWPOLYLINE
  5
408
100
AcDbEntity
  8
compi_laser_schneiden
 62
2
100
AcDbPolyline
 90
6
 70
1
 10
308.028189
 20
538.197000
 30
0.0
 10
307.526539
 20
537.331636
 30
0.0
 10
298.876075
 20
542.348489
 30
0.0
 10
299.377725
 20
543.213500
 30
0.0
 10
308.028189
 20
538.197000
 30
0.0
 10
308.028189
 20
538.197000
 30
0.0
  0
LWPOLYLINE
  5
409
100
AcDbEntity
  8
compi_laser_schneiden
 62
2
100
AcDbPolyline
 90
6
 70
1
 10
297.697657
 20
548.643067
 30
0.0
 10
287.697818
 20
548.643067
 30
0.0
 10
287.697818
 20
549.643192
 30
0.0
 10
297.697657
 20
549.643192
 30
0.0
 10
297.697657
 20
548.643067
 30
0.0
 10
297.697657
 20
548.643067
 30
0.0
  0
LWPOLYLINE
  5
40a
100
AcDbEntity
  8
compi_laser_schneiden
 62
2
100
AcDbPolyline
 90
6
 70
1
 10
274.145683
 20
528.681984
 30
0.0
 10
273.438716
 20
527.975017
 30
0.0
 10
266.367286
 20
535.046095
 30
0.0
 10
267.074252
 20
535.753061
 30
0.0
 10
274.145683
 20
528.681984
 30
0.0
 10
274.145683
 20
528.681984
 30
0.0
  0
LWPOLYLINE
  5
40b
100
AcDbEntity
  8
compi_laser_schneiden
 62
2
100
AcDbPolyline
 90
6
 70
1
 10
292.697384
 20
573.541065
 30
0.0
 10
282.697545
 20
573.541065
 30
0.0
 10
282.697545
 20
574.540837
 30
0.0
 10
292.697384
 20
574.540837
 30
0.0
 10
292.697384
 20
573.541065
 30
0.0
 10
292.697384
 20
573.541065
 30
0.0
  0
LWPOLYLINE
  5
40c
100
AcDbEntity
  8
compi_laser_schneiden
 62
2
100
AcDbPolyline
 90
6
 70
1
 10
275.884772
 20
560.969758
 30
0.0
 10
274.976016
 20
560.553480
 30
0.0
 10
270.810769
 20
569.644916
 30
0.0
 10
271.720230
 20
570.061194
 30
0.0
 10
275.884772
 20
560.969758
 30
0.0
 10
275.884772
 20
560.969758
 30
0.0
  0
LWPOLYLINE
  5
40d
100
AcDbEntity
  8
compi_laser_schneiden
 62
2
100
AcDbPolyline
 90
6
 70
1
 10
291.347657
 20
522.176267
 30
0.0
 10
281.347818
 20
522.176267
 30
0.0
 10
281.347818
 20
523.176040
 30
0.0
 10
291.347657
 20
523.176040
 30
0.0
 10
291.347657
 20
522.176267
 30
0.0
 10
291.347657
 20
522.176267
 30
0.0
  0
LWPOLYLINE
  5
40e
100
AcDbEntity
  8
compi_laser_schneiden
 62
2
100
AcDbPolyline
 90
6
 70
1
 10
291.697612
 20
529.864001
 30
0.0
 10
281.697773
 20
529.864001
 30
0.0
 10
281.697773
 20
530.864126
 30
0.0
 10
291.697612
 20
530.864126
 30
0.0
 10
291.697612
 20
529.864001
 30
0.0
 10
291.697612
 20
529.864001
 30
0.0
  0
LWPOLYLINE
  5
40f
100
AcDbEntity
  8
compi_laser_schneiden
 62
2
100
AcDbPolyline
 90
6
 70
1
 10
292.697384
 20
538.272812
 30
0.0
 10
282.697545
 20
538.272812
 30
0.0
 10
282.697545
 20
539.272584
 30
0.0
 10
292.697384
 20
539.272584
 30
0.0
 10
292.697384
 20
538.272812
 30
0.0
 10
292.697384
 20
538.272812
 30
0.0
  0
LWPOLYLINE
  5
410
100
AcDbEntity
  8
compi_laser_schneiden
 62
2
100
AcDbPolyline
 90
6
 70
1
 10
261.764065
 20
543.143615
 30
0.0
 10
260.763587
 20
543.143615
 30
0.0
 10
260.763587
 20
553.143806
 30
0.0
 10
261.764065
 20
553.143806
 30
0.0
 10
261.764065
 20
543.143615
 30
0.0
 10
261.764065
 20
543.143615
 30
0.0
  0
LWPOLYLINE
  5
411
100
AcDbEntity
  8
compi_laser_schneiden
 62
2
100
AcDbPolyline
 90
6
 70
1
 10
271.847865
 20
539.224606
 30
0.0
 10
270.848093
 20
539.224606
 30
0.0
 10
270.848093
 20
549.224798
 30
0.0
 10
271.847865
 20
549.224798
 30
0.0
 10
271.847865
 20
539.224606
 30
0.0
 10
271.847865
 20
539.224606
 30
0.0
  0
SPLINE
  5
412
100
AcDbEntity
  8
compi_laser_schneiden
 62
7
100
AcDbSpline
 70
8
 71
3
 72
8
 73
4
 74
0
 40
0
 40
0
 40
0
 40
0
 40
1
 40
1
 40
1
 40
1
 10
322.697748
 20
549.142742
 30
0.0
 10
322.697748
 20
568.472847
 30
0.0
 10
338.368137
 20
584.142884
 30
0.0
 10
357.697889
 20
584.142884
 30
0.0
  0
SPLINE
  5
413
100
AcDbEntity
  8
compi_laser_schneiden
 62
7
100
AcDbSpline
 70
8
 71
3
 72
8
 73
4
 74
0
 40
0
 40
0
 40
0
 40
0
 40
1
 40
1
 40
1
 40
1
 10
357.697889
 20
584.142884
 30
0.0
 10
377.027642
 20
584.142884
 30
0.0
 10
392.698031
 20
568.472847
 30
0.0
 10
392.698031
 20
549.142742
 30
0.0
  0
SPLINE
  5
414
100
AcDbEntity
  8
compi_laser_schneiden
 62
7
100
AcDbSpline
 70
8
 71
3
 72
8
 73
4
 74
0
 40
0
 40
0
 40
0
 40
0
 40
1
 40
1
 40
1
 40
1
 10
392.698031
 20
549.142742
 30
0.0
 10
392.698031
 20
529.812989
 30
0.0
 10
377.027642
 20
514.142953
 30
0.0
 10
357.697889
 20
514.142953
 30
0.0
  0
SPLINE
  5
415
100
AcDbEntity
  8
compi_laser_schneiden
 62
7
100
AcDbSpline
 70
8
 71
3
 72
8
 73
4
 74
0
 40
0
 40
0
 40
0
 40
0
 40
1
 40
1
 40
1
 40
1
 10
357.697889
 20
514.142953
 30
0.0
 10
338.368137
 20
514.142953
 30
0.0
 10
322.697748
 20
529.812989
 30
0.0
 10
322.697748
 20
549.142742
 30
0.0
  0
LWPOLYLINE
  5
416
100
AcDbEntity
  8
compi_laser_schneiden
 62
2
100
AcDbPolyline
 90
6
 70
1
 10
278.664943
 20
544.143387
 30
0.0
 10
277.665170
 20
544.143387
 30
0.0
 10
277.665170
 20
554.143931
 30
0.0
 10
278.664943
 20
554.143931
 30
0.0
 10
278.664943
 20
544.143387
 30
0.0
 10
278.664943
 20
544.143387
 30
0.0
  0
LWPOLYLINE
  5
417
100
AcDbEntity
  8
compi_laser_schneiden
 62
7
100
AcDbPolyline
 90
2
 70
1
 10
322.697748
 20
549.142742
 30
0.0
 10
322.697748
 20
549.142742
 30
0.0
  0
LWPOLYLINE
  5
418
100
AcDbEntity
  8
compi_laser_schneiden
 62
2
100
AcDbPolyline
 90
6
 70
1
 10
382.380551
 20
554.143579
 30
0.0
 10
383.380323
 20
554.143579
 30
0.0
 10
383.380323
 20
544.143034
 30
0.0
 10
382.380551
 20
544.143034
 30
0.0
 10
382.380551
 20
554.143579
 30
0.0
 10
382.380551
 20
554.143579
 30
0.0
  0
LWPOLYLINE
  5
419
100
AcDbEntity
  8
compi_laser_schneiden
 62
2
100
AcDbPolyline
 90
6
 70
1
 10
367.178651
 20
566.080520
 30
0.0
 10
368.178423
 20
566.080520
 30
0.0
 10
368.178423
 20
556.080681
 30
0.0
 10
367.178651
 20
556.080681
 30
0.0
 10
367.178651
 20
566.080520
 30
0.0
 10
367.178651
 20
566.080520
 30
0.0
  0
LWPOLYLINE
  5
41a
100
AcDbEntity
  8
compi_laser_schneiden
 62
2
100
AcDbPolyline
 90
6
 70
1
 10
379.252435
 20
564.401439
 30
0.0
 10
380.194352
 20
564.064536
 30
0.0
 10
376.823560
 20
554.649250
 30
0.0
 10
375.882349
 20
554.986506
 30
0.0
 10
379.252435
 20
564.401439
 30
0.0
 10
379.252435
 20
564.401439
 30
0.0
  0
LWPOLYLINE
  5
41b
100
AcDbEntity
  8
compi_laser_schneiden
 62
2
100
AcDbPolyline
 90
6
 70
1
 10
337.180898
 20
565.610620
 30
0.0
 10
338.181376
 20
565.610620
 30
0.0
 10
338.181376
 20
555.610781
 30
0.0
 10
337.180898
 20
555.610781
 30
0.0
 10
337.180898
 20
565.610620
 30
0.0
 10
337.180898
 20
565.610620
 30
0.0
  0
LWPOLYLINE
  5
41c
100
AcDbEntity
  8
compi_laser_schneiden
 62
2
100
AcDbPolyline
 90
6
 70
1
 10
369.665382
 20
536.018209
 30
0.0
 10
370.665154
 20
536.018209
 30
0.0
 10
370.665154
 20
526.018017
 30
0.0
 10
369.665382
 20
526.018017
 30
0.0
 10
369.665382
 20
536.018209
 30
0.0
 10
369.665382
 20
536.018209
 30
0.0
  0
LWPOLYLINE
  5
41d
100
AcDbEntity
  8
compi_laser_schneiden
 62
2
100
AcDbPolyline
 90
6
 70
1
 10
359.332909
 20
561.945435
 30
0.0
 10
358.831259
 20
561.080424
 30
0.0
 10
350.180089
 20
566.097277
 30
0.0
 10
350.681739
 20
566.961935
 30
0.0
 10
359.332909
 20
561.945435
 30
0.0
 10
359.332909
 20
561.945435
 30
0.0
  0
LWPOLYLINE
  5
41e
100
AcDbEntity
  8
compi_laser_schneiden
 62
2
100
AcDbPolyline
 90
6
 70
1
 10
379.663104
 20
538.197000
 30
0.0
 10
379.161454
 20
537.331636
 30
0.0
 10
370.510990
 20
542.348489
 30
0.0
 10
371.012640
 20
543.213500
 30
0.0
 10
379.663104
 20
538.197000
 30
0.0
 10
379.663104
 20
538.197000
 30
0.0
  0
LWPOLYLINE
  5
41f
100
AcDbEntity
  8
compi_laser_schneiden
 62
2
100
AcDbPolyline
 90
6
 70
1
 10
369.332712
 20
548.643067
 30
0.0
 10
359.332873
 20
548.643067
 30
0.0
 10
359.332873
 20
549.643192
 30
0.0
 10
369.332712
 20
549.643192
 30
0.0
 10
369.332712
 20
548.643067
 30
0.0
 10
369.332712
 20
548.643067
 30
0.0
  0
LWPOLYLINE
  5
420
100
AcDbEntity
  8
compi_laser_schneiden
 62
2
100
AcDbPolyline
 90
6
 70
1
 10
345.780562
 20
528.681984
 30
0.0
 10
345.073595
 20
527.975017
 30
0.0
 10
338.002165
 20
535.046095
 30
0.0
 10
338.709132
 20
535.753061
 30
0.0
 10
345.780562
 20
528.681984
 30
0.0
 10
345.780562
 20
528.681984
 30
0.0
  0
LWPOLYLINE
  5
421
100
AcDbEntity
  8
compi_laser_schneiden
 62
2
100
AcDbPolyline
 90
6
 70
1
 10
364.332440
 20
573.541065
 30
0.0
 10
354.332601
 20
573.541065
 30
0.0
 10
354.332601
 20
574.540837
 30
0.0
 10
364.332440
 20
574.540837
 30
0.0
 10
364.332440
 20
573.541065
 30
0.0
 10
364.332440
 20
573.541065
 30
0.0
  0
LWPOLYLINE
  5
422
100
AcDbEntity
  8
compi_laser_schneiden
 62
2
100
AcDbPolyline
 90
6
 70
1
 10
347.519651
 20
560.969758
 30
0.0
 10
346.610895
 20
560.553480
 30
0.0
 10
342.445648
 20
569.644916
 30
0.0
 10
343.355109
 20
570.061194
 30
0.0
 10
347.519651
 20
560.969758
 30
0.0
 10
347.519651
 20
560.969758
 30
0.0
  0
LWPOLYLINE
  5
423
100
AcDbEntity
  8
compi_laser_schneiden
 62
2
100
AcDbPolyline
 90
6
 70
1
 10
362.982712
 20
522.176267
 30
0.0
 10
352.982873
 20
522.176267
 30
0.0
 10
352.982873
 20
523.176040
 30
0.0
 10
362.982712
 20
523.176040
 30
0.0
 10
362.982712
 20
522.176267
 30
0.0
 10
362.982712
 20
522.176267
 30
0.0
  0
LWPOLYLINE
  5
424
100
AcDbEntity
  8
compi_laser_schneiden
 62
2
100
AcDbPolyline
 90
6
 70
1
 10
363.332668
 20
529.864001
 30
0.0
 10
353.332829
 20
529.864001
 30
0.0
 10
353.332829
 20
530.864126
 30
0.0
 10
363.332668
 20
530.864126
 30
0.0
 10
363.332668
 20
529.864001
 30
0.0
 10
363.332668
 20
529.864001
 30
0.0
  0
LWPOLYLINE
  5
425
100
AcDbEntity
  8
compi_laser_schneiden
 62
2
100
AcDbPolyline
 90
6
 70
1
 10
364.332440
 20
538.272812
 30
0.0
 10
354.332601
 20
538.272812
 30
0.0
 10
354.332601
 20
539.272584
 30
0.0
 10
364.332440
 20
539.272584
 30
0.0
 10
364.332440
 20
538.272812
 30
0.0
 10
364.332440
 20
538.272812
 30
0.0
  0
LWPOLYLINE
  5
426
100
AcDbEntity
  8
compi_laser_schneiden
 62
2
100
AcDbPolyline
 90
6
 70
1
 10
333.398768
 20
543.143615
 30
0.0
 10
332.398290
 20
543.143615
 30
0.0
 10
332.398290
 20
553.143806
 30
0.0
 10
333.398768
 20
553.143806
 30
0.0
 10
333.398768
 20
543.143615
 30
0.0
 10
333.398768
 20
543.143615
 30
0.0
  0
LWPOLYLINE
  5
427
100
AcDbEntity
  8
compi_laser_schneiden
 62
2
100
AcDbPolyline
 90
6
 70
1
 10
343.482568
 20
539.224606
 30
0.0
 10
342.482795
 20
539.224606
 30
0.0
 10
342.482795
 20
549.224798
 30
0.0
 10
343.482568
 20
549.224798
 30
0.0
 10
343.482568
 20
539.224606
 30
0.0
 10
343.482568
 20
539.224606
 30
0.0
  0
SPLINE
  5
428
100
AcDbEntity
  8
compi_laser_schneiden
 62
7
100
AcDbSpline
 70
8
 71
3
 72
8
 73
4
 74
0
 40
0
 40
0
 40
0
 40
0
 40
1
 40
1
 40
1
 40
1
 10
396.119975
 20
549.142742
 30
0.0
 10
396.119975
 20
568.472847
 30
0.0
 10
411.790364
 20
584.142884
 30
0.0
 10
431.120117
 20
584.142884
 30
0.0
  0
SPLINE
  5
429
100
AcDbEntity
  8
compi_laser_schneiden
 62
7
100
AcDbSpline
 70
8
 71
3
 72
8
 73
4
 74
0
 40
0
 40
0
 40
0
 40
0
 40
1
 40
1
 40
1
 40
1
 10
431.120117
 20
584.142884
 30
0.0
 10
450.449870
 20
584.142884
 30
0.0
 10
466.120259
 20
568.472847
 30
0.0
 10
466.120259
 20
549.142742
 30
0.0
  0
SPLINE
  5
42a
100
AcDbEntity
  8
compi_laser_schneiden
 62
7
100
AcDbSpline
 70
8
 71
3
 72
8
 73
4
 74
0
 40
0
 40
0
 40
0
 40
0
 40
1
 40
1
 40
1
 40
1
 10
466.120259
 20
549.142742
 30
0.0
 10
466.120259
 20
529.812989
 30
0.0
 10
450.449870
 20
514.142953
 30
0.0
 10
431.120117
 20
514.142953
 30
0.0
  0
SPLINE
  5
42b
100
AcDbEntity
  8
compi_laser_schneiden
 62
7
100
AcDbSpline
 70
8
 71
3
 72
8
 73
4
 74
0
 40
0
 40
0
 40
0
 40
0
 40
1
 40
1
 40
1
 40
1
 10
431.120117
 20
514.142953
 30
0.0
 10
411.790364
 20
514.142953
 30
0.0
 10
396.119975
 20
529.812989
 30
0.0
 10
396.119975
 20
549.142742
 30
0.0
  0
LWPOLYLINE
  5
42c
100
AcDbEntity
  8
compi_laser_schneiden
 62
2
100
AcDbPolyline
 90
6
 70
1
 10
350.299998
 20
544.143387
 30
0.0
 10
349.300226
 20
544.143387
 30
0.0
 10
349.300226
 20
554.143931
 30
0.0
 10
350.299998
 20
554.143931
 30
0.0
 10
350.299998
 20
544.143387
 30
0.0
 10
350.299998
 20
544.143387
 30
0.0
  0
LWPOLYLINE
  5
42d
100
AcDbEntity
  8
compi_laser_schneiden
 62
7
100
AcDbPolyline
 90
2
 70
1
 10
396.119975
 20
549.142742
 30
0.0
 10
396.119975
 20
549.142742
 30
0.0
  0
LWPOLYLINE
  5
42e
100
AcDbEntity
  8
compi_laser_schneiden
 62
2
100
AcDbPolyline
 90
6
 70
1
 10
455.802779
 20
554.143579
 30
0.0
 10
456.802551
 20
554.143579
 30
0.0
 10
456.802551
 20
544.143034
 30
0.0
 10
455.802779
 20
544.143034
 30
0.0
 10
455.802779
 20
554.143579
 30
0.0
 10
455.802779
 20
554.143579
 30
0.0
  0
LWPOLYLINE
  5
42f
100
AcDbEntity
  8
compi_laser_schneiden
 62
2
100
AcDbPolyline
 90
6
 70
1
 10
440.600879
 20
566.080520
 30
0.0
 10
441.600651
 20
566.080520
 30
0.0
 10
441.600651
 20
556.080681
 30
0.0
 10
440.600879
 20
556.080681
 30
0.0
 10
440.600879
 20
566.080520
 30
0.0
 10
440.600879
 20
566.080520
 30
0.0
  0
LWPOLYLINE
  5
430
100
AcDbEntity
  8
compi_laser_schneiden
 62
2
100
AcDbPolyline
 90
6
 70
1
 10
452.674663
 20
564.401439
 30
0.0
 10
453.616580
 20
564.064536
 30
0.0
 10
450.245788
 20
554.649250
 30
0.0
 10
449.304577
 20
554.986506
 30
0.0
 10
452.674663
 20
564.401439
 30
0.0
 10
452.674663
 20
564.401439
 30
0.0
  0
LWPOLYLINE
  5
431
100
AcDbEntity
  8
compi_laser_schneiden
 62
2
100
AcDbPolyline
 90
6
 70
1
 10
410.603126
 20
565.610620
 30
0.0
 10
411.603604
 20
565.610620
 30
0.0
 10
411.603604
 20
555.610781
 30
0.0
 10
410.603126
 20
555.610781
 30
0.0
 10
410.603126
 20
565.610620
 30
0.0
 10
410.603126
 20
565.610620
 30
0.0
  0
LWPOLYLINE
  5
432
100
AcDbEntity
  8
compi_laser_schneiden
 62
2
100
AcDbPolyline
 90
6
 70
1
 10
443.087609
 20
536.018209
 30
0.0
 10
444.087382
 20
536.018209
 30
0.0
 10
444.087382
 20
526.018017
 30
0.0
 10
443.087609
 20
526.018017
 30
0.0
 10
443.087609
 20
536.018209
 30
0.0
 10
443.087609
 20
536.018209
 30
0.0
  0
LWPOLYLINE
  5
433
100
AcDbEntity
  8
compi_laser_schneiden
 62
2
100
AcDbPolyline
 90
6
 70
1
 10
432.755101
 20
561.945435
 30
0.0
 10
432.253451
 20
561.080424
 30
0.0
 10
423.602282
 20
566.097277
 30
0.0
 10
424.103932
 20
566.961935
 30
0.0
 10
432.755101
 20
561.945435
 30
0.0
 10
432.755101
 20
561.945435
 30
0.0
  0
LWPOLYLINE
  5
434
100
AcDbEntity
  8
compi_laser_schneiden
 62
2
100
AcDbPolyline
 90
6
 70
1
 10
453.085296
 20
538.197000
 30
0.0
 10
452.583646
 20
537.331636
 30
0.0
 10
443.933182
 20
542.348489
 30
0.0
 10
444.434832
 20
543.213500
 30
0.0
 10
453.085296
 20
538.197000
 30
0.0
 10
453.085296
 20
538.197000
 30
0.0
  0
LWPOLYLINE
  5
435
100
AcDbEntity
  8
compi_laser_schneiden
 62
2
100
AcDbPolyline
 90
6
 70
1
 10
442.754940
 20
548.643067
 30
0.0
 10
432.755101
 20
548.643067
 30
0.0
 10
432.755101
 20
549.643192
 30
0.0
 10
442.754940
 20
549.643192
 30
0.0
 10
442.754940
 20
548.643067
 30
0.0
 10
442.754940
 20
548.643067
 30
0.0
  0
LWPOLYLINE
  5
436
100
AcDbEntity
  8
compi_laser_schneiden
 62
2
100
AcDbPolyline
 90
6
 70
1
 10
419.202790
 20
528.681984
 30
0.0
 10
418.495823
 20
527.975017
 30
0.0
 10
411.424393
 20
535.046095
 30
0.0
 10
412.131359
 20
535.753061
 30
0.0
 10
419.202790
 20
528.681984
 30
0.0
 10
419.202790
 20
528.681984
 30
0.0
  0
LWPOLYLINE
  5
437
100
AcDbEntity
  8
compi_laser_schneiden
 62
2
100
AcDbPolyline
 90
6
 70
1
 10
437.754668
 20
573.541065
 30
0.0
 10
427.754829
 20
573.541065
 30
0.0
 10
427.754829
 20
574.540837
 30
0.0
 10
437.754668
 20
574.540837
 30
0.0
 10
437.754668
 20
573.541065
 30
0.0
 10
437.754668
 20
573.541065
 30
0.0
  0
LWPOLYLINE
  5
438
100
AcDbEntity
  8
compi_laser_schneiden
 62
2
100
AcDbPolyline
 90
6
 70
1
 10
420.941879
 20
560.969758
 30
0.0
 10
420.033123
 20
560.553480
 30
0.0
 10
415.867876
 20
569.644916
 30
0.0
 10
416.777337
 20
570.061194
 30
0.0
 10
420.941879
 20
560.969758
 30
0.0
 10
420.941879
 20
560.969758
 30
0.0
  0
LWPOLYLINE
  5
439
100
AcDbEntity
  8
compi_laser_schneiden
 62
2
100
AcDbPolyline
 90
6
 70
1
 10
436.404940
 20
522.176267
 30
0.0
 10
426.405101
 20
522.176267
 30
0.0
 10
426.405101
 20
523.176040
 30
0.0
 10
436.404940
 20
523.176040
 30
0.0
 10
436.404940
 20
522.176267
 30
0.0
 10
436.404940
 20
522.176267
 30
0.0
  0
LWPOLYLINE
  5
43a
100
AcDbEntity
  8
compi_laser_schneiden
 62
2
100
AcDbPolyline
 90
6
 70
1
 10
436.754895
 20
529.864001
 30
0.0
 10
426.755057
 20
529.864001
 30
0.0
 10
426.755057
 20
530.864126
 30
0.0
 10
436.754895
 20
530.864126
 30
0.0
 10
436.754895
 20
529.864001
 30
0.0
 10
436.754895
 20
529.864001
 30
0.0
  0
LWPOLYLINE
  5
43b
100
AcDbEntity
  8
compi_laser_schneiden
 62
2
100
AcDbPolyline
 90
6
 70
1
 10
437.754668
 20
538.272812
 30
0.0
 10
427.754829
 20
538.272812
 30
0.0
 10
427.754829
 20
539.272584
 30
0.0
 10
437.754668
 20
539.272584
 30
0.0
 10
437.754668
 20
538.272812
 30
0.0
 10
437.754668
 20
538.272812
 30
0.0
  0
LWPOLYLINE
  5
43c
100
AcDbEntity
  8
compi_laser_schneiden
 62
2
100
AcDbPolyline
 90
6
 70
1
 10
406.820995
 20
543.143615
 30
0.0
 10
405.820518
 20
543.143615
 30
0.0
 10
405.820518
 20
553.143806
 30
0.0
 10
406.820995
 20
553.143806
 30
0.0
 10
406.820995
 20
543.143615
 30
0.0
 10
406.820995
 20
543.143615
 30
0.0
  0
LWPOLYLINE
  5
43d
100
AcDbEntity
  8
compi_laser_schneiden
 62
2
100
AcDbPolyline
 90
6
 70
1
 10
416.904795
 20
539.224606
 30
0.0
 10
415.905023
 20
539.224606
 30
0.0
 10
415.905023
 20
549.224798
 30
0.0
 10
416.904795
 20
549.224798
 30
0.0
 10
416.904795
 20
539.224606
 30
0.0
 10
416.904795
 20
539.224606
 30
0.0
  0
SPLINE
  5
43e
100
AcDbEntity
  8
compi_laser_schneiden
 62
7
100
AcDbSpline
 70
8
 71
3
 72
8
 73
4
 74
0
 40
0
 40
0
 40
0
 40
0
 40
1
 40
1
 40
1
 40
1
 10
469.473623
 20
549.142742
 30
0.0
 10
469.473623
 20
568.472847
 30
0.0
 10
485.144012
 20
584.142884
 30
0.0
 10
504.473765
 20
584.142884
 30
0.0
  0
SPLINE
  5
43f
100
AcDbEntity
  8
compi_laser_schneiden
 62
7
100
AcDbSpline
 70
8
 71
3
 72
8
 73
4
 74
0
 40
0
 40
0
 40
0
 40
0
 40
1
 40
1
 40
1
 40
1
 10
504.473765
 20
584.142884
 30
0.0
 10
523.803518
 20
584.142884
 30
0.0
 10
539.473907
 20
568.472847
 30
0.0
 10
539.473907
 20
549.142742
 30
0.0
  0
SPLINE
  5
440
100
AcDbEntity
  8
compi_laser_schneiden
 62
7
100
AcDbSpline
 70
8
 71
3
 72
8
 73
4
 74
0
 40
0
 40
0
 40
0
 40
0
 40
1
 40
1
 40
1
 40
1
 10
539.473907
 20
549.142742
 30
0.0
 10
539.473907
 20
529.812989
 30
0.0
 10
523.803518
 20
514.142953
 30
0.0
 10
504.473765
 20
514.142953
 30
0.0
  0
SPLINE
  5
441
100
AcDbEntity
  8
compi_laser_schneiden
 62
7
100
AcDbSpline
 70
8
 71
3
 72
8
 73
4
 74
0
 40
0
 40
0
 40
0
 40
0
 40
1
 40
1
 40
1
 40
1
 10
504.473765
 20
514.142953
 30
0.0
 10
485.144012
 20
514.142953
 30
0.0
 10
469.473623
 20
529.812989
 30
0.0
 10
469.473623
 20
549.142742
 30
0.0
  0
LWPOLYLINE
  5
442
100
AcDbEntity
  8
compi_laser_schneiden
 62
2
100
AcDbPolyline
 90
6
 70
1
 10
423.722226
 20
544.143387
 30
0.0
 10
422.722454
 20
544.143387
 30
0.0
 10
422.722454
 20
554.143931
 30
0.0
 10
423.722226
 20
554.143931
 30
0.0
 10
423.722226
 20
544.143387
 30
0.0
 10
423.722226
 20
544.143387
 30
0.0
  0
LWPOLYLINE
  5
443
100
AcDbEntity
  8
compi_laser_schneiden
 62
7
100
AcDbPolyline
 90
2
 70
1
 10
469.473623
 20
549.142742
 30
0.0
 10
469.473623
 20
549.142742
 30
0.0
  0
LWPOLYLINE
  5
444
100
AcDbEntity
  8
compi_laser_schneiden
 62
2
100
AcDbPolyline
 90
6
 70
1
 10
529.156568
 20
554.143579
 30
0.0
 10
530.156340
 20
554.143579
 30
0.0
 10
530.156340
 20
544.143034
 30
0.0
 10
529.156568
 20
544.143034
 30
0.0
 10
529.156568
 20
554.143579
 30
0.0
 10
529.156568
 20
554.143579
 30
0.0
  0
LWPOLYLINE
  5
445
100
AcDbEntity
  8
compi_laser_schneiden
 62
2
100
AcDbPolyline
 90
6
 70
1
 10
513.954668
 20
566.080520
 30
0.0
 10
514.954440
 20
566.080520
 30
0.0
 10
514.954440
 20
556.080681
 30
0.0
 10
513.954668
 20
556.080681
 30
0.0
 10
513.954668
 20
566.080520
 30
0.0
 10
513.954668
 20
566.080520
 30
0.0
  0
LWPOLYLINE
  5
446
100
AcDbEntity
  8
compi_laser_schneiden
 62
2
100
AcDbPolyline
 90
6
 70
1
 10
526.028311
 20
564.401439
 30
0.0
 10
526.970227
 20
564.064536
 30
0.0
 10
523.599436
 20
554.649250
 30
0.0
 10
522.658225
 20
554.986506
 30
0.0
 10
526.028311
 20
564.401439
 30
0.0
 10
526.028311
 20
564.401439
 30
0.0
  0
LWPOLYLINE
  5
447
100
AcDbEntity
  8
compi_laser_schneiden
 62
2
100
AcDbPolyline
 90
6
 70
1
 10
483.956915
 20
565.610620
 30
0.0
 10
484.957393
 20
565.610620
 30
0.0
 10
484.957393
 20
555.610781
 30
0.0
 10
483.956915
 20
555.610781
 30
0.0
 10
483.956915
 20
565.610620
 30
0.0
 10
483.956915
 20
565.610620
 30
0.0
  0
LWPOLYLINE
  5
448
100
AcDbEntity
  8
compi_laser_schneiden
 62
2
100
AcDbPolyline
 90
6
 70
1
 10
516.441398
 20
536.018209
 30
0.0
 10
517.441170
 20
536.018209
 30
0.0
 10
517.441170
 20
526.018017
 30
0.0
 10
516.441398
 20
526.018017
 30
0.0
 10
516.441398
 20
536.018209
 30
0.0
 10
516.441398
 20
536.018209
 30
0.0
  0
LWPOLYLINE
  5
449
100
AcDbEntity
  8
compi_laser_schneiden
 62
2
100
AcDbPolyline
 90
6
 70
1
 10
506.108784
 20
561.945435
 30
0.0
 10
505.607134
 20
561.080424
 30
0.0
 10
496.955965
 20
566.097277
 30
0.0
 10
497.457615
 20
566.961935
 30
0.0
 10
506.108784
 20
561.945435
 30
0.0
 10
506.108784
 20
561.945435
 30
0.0
  0
LWPOLYLINE
  5
44a
100
AcDbEntity
  8
compi_laser_schneiden
 62
2
100
AcDbPolyline
 90
6
 70
1
 10
526.438979
 20
538.197000
 30
0.0
 10
525.937329
 20
537.331636
 30
0.0
 10
517.286865
 20
542.348489
 30
0.0
 10
517.788515
 20
543.213500
 30
0.0
 10
526.438979
 20
538.197000
 30
0.0
 10
526.438979
 20
538.197000
 30
0.0
  0
LWPOLYLINE
  5
44b
100
AcDbEntity
  8
compi_laser_schneiden
 62
2
100
AcDbPolyline
 90
6
 70
1
 10
516.108376
 20
548.643067
 30
0.0
 10
506.108537
 20
548.643067
 30
0.0
 10
506.108537
 20
549.643192
 30
0.0
 10
516.108376
 20
549.643192
 30
0.0
 10
516.108376
 20
548.643067
 30
0.0
 10
516.108376
 20
548.643067
 30
0.0
  0
LWPOLYLINE
  5
44c
100
AcDbEntity
  8
compi_laser_schneiden
 62
2
100
AcDbPolyline
 90
6
 70
1
 10
492.556473
 20
528.681984
 30
0.0
 10
491.849506
 20
527.975017
 30
0.0
 10
484.778076
 20
535.046095
 30
0.0
 10
485.485042
 20
535.753061
 30
0.0
 10
492.556473
 20
528.681984
 30
0.0
 10
492.556473
 20
528.681984
 30
0.0
  0
LWPOLYLINE
  5
44d
100
AcDbEntity
  8
compi_laser_schneiden
 62
2
100
AcDbPolyline
 90
6
 70
1
 10
511.108457
 20
573.541065
 30
0.0
 10
501.108618
 20
573.541065
 30
0.0
 10
501.108618
 20
574.540837
 30
0.0
 10
511.108457
 20
574.540837
 30
0.0
 10
511.108457
 20
573.541065
 30
0.0
 10
511.108457
 20
573.541065
 30
0.0
  0
LWPOLYLINE
  5
44e
100
AcDbEntity
  8
compi_laser_schneiden
 62
2
100
AcDbPolyline
 90
6
 70
1
 10
494.295562
 20
560.969758
 30
0.0
 10
493.386806
 20
560.553480
 30
0.0
 10
489.221559
 20
569.644916
 30
0.0
 10
490.131020
 20
570.061194
 30
0.0
 10
494.295562
 20
560.969758
 30
0.0
 10
494.295562
 20
560.969758
 30
0.0
  0
LWPOLYLINE
  5
44f
100
AcDbEntity
  8
compi_laser_schneiden
 62
2
100
AcDbPolyline
 90
6
 70
1
 10
509.758376
 20
522.176267
 30
0.0
 10
499.758537
 20
522.176267
 30
0.0
 10
499.758537
 20
523.176040
 30
0.0
 10
509.758376
 20
523.176040
 30
0.0
 10
509.758376
 20
522.176267
 30
0.0
 10
509.758376
 20
522.176267
 30
0.0
  0
LWPOLYLINE
  5
450
100
AcDbEntity
  8
compi_laser_schneiden
 62
2
100
AcDbPolyline
 90
6
 70
1
 10
510.108684
 20
529.864001
 30
0.0
 10
500.108845
 20
529.864001
 30
0.0
 10
500.108845
 20
530.864126
 30
0.0
 10
510.108684
 20
530.864126
 30
0.0
 10
510.108684
 20
529.864001
 30
0.0
 10
510.108684
 20
529.864001
 30
0.0
  0
LWPOLYLINE
  5
451
100
AcDbEntity
  8
compi_laser_schneiden
 62
2
100
AcDbPolyline
 90
6
 70
1
 10
511.108457
 20
538.272812
 30
0.0
 10
501.108618
 20
538.272812
 30
0.0
 10
501.108618
 20
539.272584
 30
0.0
 10
511.108457
 20
539.272584
 30
0.0
 10
511.108457
 20
538.272812
 30
0.0
 10
511.108457
 20
538.272812
 30
0.0
  0
LWPOLYLINE
  5
452
100
AcDbEntity
  8
compi_laser_schneiden
 62
2
100
AcDbPolyline
 90
6
 70
1
 10
480.174784
 20
543.143615
 30
0.0
 10
479.174307
 20
543.143615
 30
0.0
 10
479.174307
 20
553.143806
 30
0.0
 10
480.174784
 20
553.143806
 30
0.0
 10
480.174784
 20
543.143615
 30
0.0
 10
480.174784
 20
543.143615
 30
0.0
  0
LWPOLYLINE
  5
453
100
AcDbEntity
  8
compi_laser_schneiden
 62
2
100
AcDbPolyline
 90
6
 70
1
 10
490.258584
 20
539.224606
 30
0.0
 10
489.258812
 20
539.224606
 30
0.0
 10
489.258812
 20
549.224798
 30
0.0
 10
490.258584
 20
549.224798
 30
0.0
 10
490.258584
 20
539.224606
 30
0.0
 10
490.258584
 20
539.224606
 30
0.0
  0
SPLINE
  5
454
100
AcDbEntity
  8
compi_laser_schneiden
 62
7
100
AcDbSpline
 70
8
 71
3
 72
8
 73
4
 74
0
 40
0
 40
0
 40
0
 40
0
 40
1
 40
1
 40
1
 40
1
 10
551.832418
 20
114.728270
 30
0.0
 10
551.832418
 20
134.058376
 30
0.0
 10
567.502807
 20
149.728412
 30
0.0
 10
586.832559
 20
149.728412
 30
0.0
  0
SPLINE
  5
455
100
AcDbEntity
  8
compi_laser_schneiden
 62
7
100
AcDbSpline
 70
8
 71
3
 72
8
 73
4
 74
0
 40
0
 40
0
 40
0
 40
0
 40
1
 40
1
 40
1
 40
1
 10
586.832559
 20
149.728412
 30
0.0
 10
606.162312
 20
149.728412
 30
0.0
 10
621.832701
 20
134.058376
 30
0.0
 10
621.832701
 20
114.728270
 30
0.0
  0
SPLINE
  5
456
100
AcDbEntity
  8
compi_laser_schneiden
 62
7
100
AcDbSpline
 70
8
 71
3
 72
8
 73
4
 74
0
 40
0
 40
0
 40
0
 40
0
 40
1
 40
1
 40
1
 40
1
 10
621.832701
 20
114.728270
 30
0.0
 10
621.832701
 20
95.398518
 30
0.0
 10
606.162312
 20
79.728482
 30
0.0
 10
586.832559
 20
79.728482
 30
0.0
  0
SPLINE
  5
457
100
AcDbEntity
  8
compi_laser_schneiden
 62
7
100
AcDbSpline
 70
8
 71
3
 72
8
 73
4
 74
0
 40
0
 40
0
 40
0
 40
0
 40
1
 40
1
 40
1
 40
1
 10
586.832559
 20
79.728482
 30
0.0
 10
567.502807
 20
79.728482
 30
0.0
 10
551.832418
 20
95.398518
 30
0.0
 10
551.832418
 20
114.728270
 30
0.0
  0
LWPOLYLINE
  5
458
100
AcDbEntity
  8
compi_laser_schneiden
 62
2
100
AcDbPolyline
 90
6
 70
1
 10
497.075662
 20
544.143387
 30
0.0
 10
496.075890
 20
544.143387
 30
0.0
 10
496.075890
 20
554.143931
 30
0.0
 10
497.075662
 20
554.143931
 30
0.0
 10
497.075662
 20
544.143387
 30
0.0
 10
497.075662
 20
544.143387
 30
0.0
  0
LWPOLYLINE
  5
459
100
AcDbEntity
  8
compi_laser_schneiden
 62
7
100
AcDbPolyline
 90
2
 70
1
 10
551.832418
 20
114.728270
 30
0.0
 10
551.832418
 20
114.728270
 30
0.0
  0
LWPOLYLINE
  5
45a
100
AcDbEntity
  8
compi_laser_schneiden
 62
2
100
AcDbPolyline
 90
6
 70
1
 10
611.515362
 20
119.729142
 30
0.0
 10
612.515134
 20
119.729142
 30
0.0
 10
612.515134
 20
109.728598
 30
0.0
 10
611.515362
 20
109.728598
 30
0.0
 10
611.515362
 20
119.729142
 30
0.0
 10
611.515362
 20
119.729142
 30
0.0
  0
LWPOLYLINE
  5
45b
100
AcDbEntity
  8
compi_laser_schneiden
 62
2
100
AcDbPolyline
 90
6
 70
1
 10
596.313462
 20
131.666084
 30
0.0
 10
597.313234
 20
131.666084
 30
0.0
 10
597.313234
 20
121.665892
 30
0.0
 10
596.313462
 20
121.665892
 30
0.0
 10
596.313462
 20
131.666084
 30
0.0
 10
596.313462
 20
131.666084
 30
0.0
  0
LWPOLYLINE
  5
45c
100
AcDbEntity
  8
compi_laser_schneiden
 62
2
100
AcDbPolyline
 90
6
 70
1
 10
608.387105
 20
129.986932
 30
0.0
 10
609.329022
 20
129.650030
 30
0.0
 10
605.958230
 20
120.234744
 30
0.0
 10
605.017019
 20
120.571999
 30
0.0
 10
608.387105
 20
129.986932
 30
0.0
 10
608.387105
 20
129.986932
 30
0.0
  0
LWPOLYLINE
  5
45d
100
AcDbEntity
  8
compi_laser_schneiden
 62
2
100
AcDbPolyline
 90
6
 70
1
 10
566.315709
 20
131.196184
 30
0.0
 10
567.316187
 20
131.196184
 30
0.0
 10
567.316187
 20
121.195992
 30
0.0
 10
566.315709
 20
121.195992
 30
0.0
 10
566.315709
 20
131.196184
 30
0.0
 10
566.315709
 20
131.196184
 30
0.0
  0
LWPOLYLINE
  5
45e
100
AcDbEntity
  8
compi_laser_schneiden
 62
2
100
AcDbPolyline
 90
6
 70
1
 10
598.800193
 20
101.603773
 30
0.0
 10
599.799965
 20
101.603773
 30
0.0
 10
599.799965
 20
91.603581
 30
0.0
 10
598.800193
 20
91.603581
 30
0.0
 10
598.800193
 20
101.603773
 30
0.0
 10
598.800193
 20
101.603773
 30
0.0
  0
LWPOLYLINE
  5
45f
100
AcDbEntity
  8
compi_laser_schneiden
 62
2
100
AcDbPolyline
 90
6
 70
1
 10
588.467579
 20
127.530929
 30
0.0
 10
587.965929
 20
126.665918
 30
0.0
 10
579.314759
 20
131.682770
 30
0.0
 10
579.816409
 20
132.547429
 30
0.0
 10
588.467579
 20
127.530929
 30
0.0
 10
588.467579
 20
127.530929
 30
0.0
  0
LWPOLYLINE
  5
460
100
AcDbEntity
  8
compi_laser_schneiden
 62
2
100
AcDbPolyline
 90
6
 70
1
 10
608.797774
 20
103.782529
 30
0.0
 10
608.296124
 20
102.917165
 30
0.0
 10
599.645660
 20
107.934017
 30
0.0
 10
600.147310
 20
108.799029
 30
0.0
 10
608.797774
 20
103.782529
 30
0.0
 10
608.797774
 20
103.782529
 30
0.0
  0
LWPOLYLINE
  5
461
100
AcDbEntity
  8
compi_laser_schneiden
 62
2
100
AcDbPolyline
 90
6
 70
1
 10
598.467170
 20
114.228631
 30
0.0
 10
588.467332
 20
114.228631
 30
0.0
 10
588.467332
 20
115.228756
 30
0.0
 10
598.467170
 20
115.228756
 30
0.0
 10
598.467170
 20
114.228631
 30
0.0
 10
598.467170
 20
114.228631
 30
0.0
  0
LWPOLYLINE
  5
462
100
AcDbEntity
  8
compi_laser_schneiden
 62
2
100
AcDbPolyline
 90
6
 70
1
 10
574.915267
 20
94.267512
 30
0.0
 10
574.208301
 20
93.560545
 30
0.0
 10
567.136870
 20
100.631623
 30
0.0
 10
567.843837
 20
101.338590
 30
0.0
 10
574.915267
 20
94.267512
 30
0.0
 10
574.915267
 20
94.267512
 30
0.0
  0
LWPOLYLINE
  5
463
100
AcDbEntity
  8
compi_laser_schneiden
 62
2
100
AcDbPolyline
 90
6
 70
1
 10
593.467251
 20
139.126629
 30
0.0
 10
583.467412
 20
139.126629
 30
0.0
 10
583.467412
 20
140.126401
 30
0.0
 10
593.467251
 20
140.126401
 30
0.0
 10
593.467251
 20
139.126629
 30
0.0
 10
593.467251
 20
139.126629
 30
0.0
  0
LWPOLYLINE
  5
464
100
AcDbEntity
  8
compi_laser_schneiden
 62
2
100
AcDbPolyline
 90
6
 70
1
 10
576.654356
 20
126.555287
 30
0.0
 10
575.745600
 20
126.138656
 30
0.0
 10
571.580353
 20
135.230445
 30
0.0
 10
572.489814
 20
135.646723
 30
0.0
 10
576.654356
 20
126.555287
 30
0.0
 10
576.654356
 20
126.555287
 30
0.0
  0
LWPOLYLINE
  5
465
100
AcDbEntity
  8
compi_laser_schneiden
 62
2
100
AcDbPolyline
 90
6
 70
1
 10
592.117170
 20
87.761831
 30
0.0
 10
582.117332
 20
87.761831
 30
0.0
 10
582.117332
 20
88.761604
 30
0.0
 10
592.117170
 20
88.761604
 30
0.0
 10
592.117170
 20
87.761831
 30
0.0
 10
592.117170
 20
87.761831
 30
0.0
  0
LWPOLYLINE
  5
466
100
AcDbEntity
  8
compi_laser_schneiden
 62
2
100
AcDbPolyline
 90
6
 70
1
 10
592.467479
 20
95.449565
 30
0.0
 10
582.467640
 20
95.449565
 30
0.0
 10
582.467640
 20
96.449690
 30
0.0
 10
592.467479
 20
96.449690
 30
0.0
 10
592.467479
 20
95.449565
 30
0.0
 10
592.467479
 20
95.449565
 30
0.0
  0
LWPOLYLINE
  5
467
100
AcDbEntity
  8
compi_laser_schneiden
 62
2
100
AcDbPolyline
 90
6
 70
1
 10
593.467251
 20
103.858376
 30
0.0
 10
583.467412
 20
103.858376
 30
0.0
 10
583.467412
 20
104.858148
 30
0.0
 10
593.467251
 20
104.858148
 30
0.0
 10
593.467251
 20
103.858376
 30
0.0
 10
593.467251
 20
103.858376
 30
0.0
  0
LWPOLYLINE
  5
468
100
AcDbEntity
  8
compi_laser_schneiden
 62
2
100
AcDbPolyline
 90
6
 70
1
 10
562.533579
 20
108.728826
 30
0.0
 10
561.533101
 20
108.728826
 30
0.0
 10
561.533101
 20
118.729017
 30
0.0
 10
562.533579
 20
118.729017
 30
0.0
 10
562.533579
 20
108.728826
 30
0.0
 10
562.533579
 20
108.728826
 30
0.0
  0
LWPOLYLINE
  5
469
100
AcDbEntity
  8
compi_laser_schneiden
 62
2
100
AcDbPolyline
 90
6
 70
1
 10
572.617379
 20
104.810170
 30
0.0
 10
571.617607
 20
104.810170
 30
0.0
 10
571.617607
 20
114.810362
 30
0.0
 10
572.617379
 20
114.810362
 30
0.0
 10
572.617379
 20
104.810170
 30
0.0
 10
572.617379
 20
104.810170
 30
0.0
  0
LWPOLYLINE
  5
46a
100
AcDbEntity
  8
compi_laser_schneiden
 62
2
100
AcDbPolyline
 90
6
 70
1
 10
579.434457
 20
109.728598
 30
0.0
 10
578.434684
 20
109.728598
 30
0.0
 10
578.434684
 20
119.729142
 30
0.0
 10
579.434457
 20
119.729142
 30
0.0
 10
579.434457
 20
109.728598
 30
0.0
 10
579.434457
 20
109.728598
 30
0.0
  0
LWPOLYLINE
  5
46b
100
AcDbEntity
  8
compi_laser_schneiden
 62
7
100
AcDbPolyline
 90
8
 70
0
 10
671.809953
 20
277.378476
 30
0.0
 10
671.809953
 20
248.060173
 30
0.0
 10
674.809975
 20
249.913315
 30
0.0
 10
674.809975
 20
235.478001
 30
0.0
 10
579.817503
 20
235.478001
 30
0.0
 10
579.817503
 20
249.913315
 30
0.0
 10
582.817525
 20
248.060173
 30
0.0
 10
582.817525
 20
277.378476
 30
0.0
  0
LWPOLYLINE
  5
46c
100
AcDbEntity
  8
compi_laser_schneiden
 62
7
100
AcDbPolyline
 90
2
 70
0
 10
671.752415
 20
284.940444
 30
0.0
 10
671.752415
 20
277.378299
 30
0.0
  0
LWPOLYLINE
  5
46d
100
AcDbEntity
  8
compi_laser_schneiden
 62
7
100
AcDbPolyline
 90
2
 70
0
 10
671.752415
 20
297.502649
 30
0.0
 10
671.752415
 20
289.940504
 30
0.0
  0
LWPOLYLINE
  5
46e
100
AcDbEntity
  8
compi_laser_schneiden
 62
7
100
AcDbPolyline
 90
2
 70
0
 10
671.752415
 20
297.502649
 30
0.0
 10
672.371540
 20
297.502649
 30
0.0
  0
LWPOLYLINE
  5
46f
100
AcDbEntity
  8
compi_laser_schneiden
 62
7
100
AcDbPolyline
 90
2
 70
0
 10
582.256079
 20
297.502649
 30
0.0
 10
582.760199
 20
297.502649
 30
0.0
  0
LWPOLYLINE
  5
470
100
AcDbEntity
  8
compi_laser_schneiden
 62
7
100
AcDbPolyline
 90
2
 70
0
 10
582.760093
 20
289.940645
 30
0.0
 10
582.760093
 20
297.502790
 30
0.0
  0
LWPOLYLINE
  5
471
100
AcDbEntity
  8
compi_laser_schneiden
 62
7
100
AcDbPolyline
 90
2
 70
0
 10
582.760093
 20
277.378476
 30
0.0
 10
582.760093
 20
284.940620
 30
0.0
  0
LWPOLYLINE
  5
472
100
AcDbEntity
  8
compi_laser_schneiden
 62
7
100
AcDbPolyline
 90
2
 70
0
 10
582.875134
 20
339.378817
 30
0.0
 10
582.256009
 20
339.378817
 30
0.0
  0
LWPOLYLINE
  5
473
100
AcDbEntity
  8
compi_laser_schneiden
 62
7
100
AcDbPolyline
 90
2
 70
0
 10
672.394223
 20
339.378817
 30
0.0
 10
671.752520
 20
339.378817
 30
0.0
  0
LWPOLYLINE
  5
474
100
AcDbEntity
  8
compi_laser_schneiden
 62
7
100
AcDbPolyline
 90
2
 70
0
 10
671.752415
 20
351.424062
 30
0.0
 10
582.874992
 20
351.424062
 30
0.0
  0
LWPOLYLINE
  5
475
100
AcDbEntity
  8
compi_laser_schneiden
 62
2
100
AcDbPolyline
 90
2
 70
0
 10
671.752415
 20
343.378753
 30
0.0
 10
671.752415
 20
339.378959
 30
0.0
  0
LWPOLYLINE
  5
476
100
AcDbEntity
  8
compi_laser_schneiden
 62
2
100
AcDbPolyline
 90
2
 70
0
 10
671.752415
 20
351.424062
 30
0.0
 10
671.752415
 20
348.378884
 30
0.0
  0
LWPOLYLINE
  5
477
100
AcDbEntity
  8
compi_laser_schneiden
 62
7
100
AcDbPolyline
 90
2
 70
0
 10
582.875134
 20
343.381999
 30
0.0
 10
582.875134
 20
339.378676
 30
0.0
  0
LWPOLYLINE
  5
478
100
AcDbEntity
  8
compi_laser_schneiden
 62
7
100
AcDbPolyline
 90
2
 70
0
 10
582.875134
 20
351.424062
 30
0.0
 10
582.875134
 20
348.375709
 30
0.0
  0
LWPOLYLINE
  5
479
100
AcDbEntity
  8
compi_laser_schneiden
 62
7
100
AcDbPolyline
 90
5
 70
0
 10
671.752415
 20
289.940645
 30
0.0
 10
671.752415
 20
289.940645
 30
0.0
 10
674.752437
 20
289.940645
 30
0.0
 10
674.752437
 20
284.940373
 30
0.0
 10
671.752415
 20
284.940373
 30
0.0
  0
LWPOLYLINE
  5
47a
100
AcDbEntity
  8
compi_laser_schneiden
 62
7
100
AcDbPolyline
 90
4
 70
0
 10
582.760093
 20
284.940444
 30
0.0
 10
579.760070
 20
284.940444
 30
0.0
 10
579.760070
 20
289.940716
 30
0.0
 10
582.760093
 20
289.940716
 30
0.0
  0
LWPOLYLINE
  5
47b
100
AcDbEntity
  8
compi_laser_schneiden
 62
7
100
AcDbPolyline
 90
4
 70
0
 10
671.752415
 20
348.378955
 30
0.0
 10
674.752437
 20
348.378955
 30
0.0
 10
674.752437
 20
343.378682
 30
0.0
 10
671.752415
 20
343.378682
 30
0.0
  0
LWPOLYLINE
  5
47c
100
AcDbEntity
  8
compi_laser_schneiden
 62
7
100
AcDbPolyline
 90
4
 70
0
 10
582.875134
 20
343.375825
 30
0.0
 10
579.875111
 20
343.375825
 30
0.0
 10
579.875111
 20
348.376097
 30
0.0
 10
582.875134
 20
348.375744
 30
0.0
  0
LWPOLYLINE
  5
47d
100
AcDbEntity
  8
compi_laser_schneiden
 62
7
100
AcDbPolyline
 90
2
 70
0
 10
693.130254
 20
298.627128
 30
0.0
 10
688.004393
 20
333.214167
 30
0.0
  0
LWPOLYLINE
  5
47e
100
AcDbEntity
  8
compi_laser_schneiden
 62
7
100
AcDbPolyline
 90
2
 70
0
 10
672.371504
 20
295.503104
 30
0.0
 10
693.130360
 20
298.626952
 30
0.0
  0
LWPOLYLINE
  5
47f
100
AcDbEntity
  8
compi_laser_schneiden
 62
7
100
AcDbPolyline
 90
2
 70
0
 10
683.876752
 20
342.912275
 30
0.0
 10
672.371610
 20
341.378750
 30
0.0
  0
LWPOLYLINE
  5
480
100
AcDbEntity
  8
compi_laser_schneiden
 62
7
100
AcDbPolyline
 90
2
 70
0
 10
672.371504
 20
339.378641
 30
0.0
 10
672.371504
 20
341.378538
 30
0.0
  0
LWPOLYLINE
  5
481
100
AcDbEntity
  8
compi_laser_schneiden
 62
7
100
AcDbPolyline
 90
2
 70
0
 10
672.371504
 20
295.503104
 30
0.0
 10
672.371504
 20
297.502649
 30
0.0
  0
LWPOLYLINE
  5
482
100
AcDbEntity
  8
compi_laser_schneiden
 62
7
100
AcDbPolyline
 90
6
 70
1
 10
685.096975
 20
299.210728
 30
0.0
 10
680.160203
 20
298.418742
 30
0.0
 10
680.001805
 20
299.405814
 30
0.0
 10
684.938578
 20
300.198153
 30
0.0
 10
685.096975
 20
299.210728
 30
0.0
 10
685.096975
 20
299.210728
 30
0.0
  0
LWPOLYLINE
  5
483
100
AcDbEntity
  8
compi_laser_schneiden
 62
7
100
AcDbPolyline
 90
6
 70
1
 10
681.527534
 20
339.713321
 30
0.0
 10
676.590762
 20
338.920982
 30
0.0
 10
676.432365
 20
339.908055
 30
0.0
 10
681.369490
 20
340.700394
 30
0.0
 10
681.527534
 20
339.713321
 30
0.0
 10
681.527534
 20
339.713321
 30
0.0
  0
LWPOLYLINE
  5
484
100
AcDbEntity
  8
compi_laser_schneiden
 62
7
100
AcDbPolyline
 90
3
 70
0
 10
688.004322
 20
333.214167
 30
0.0
 10
686.128250
 20
332.491678
 30
0.0
 10
683.876822
 20
342.912381
 30
0.0
  0
LWPOLYLINE
  5
485
100
AcDbEntity
  8
compi_laser_schneiden
 62
7
100
AcDbPolyline
 90
2
 70
0
 10
561.339532
 20
298.627128
 30
0.0
 10
566.623437
 20
333.214167
 30
0.0
  0
LWPOLYLINE
  5
486
100
AcDbEntity
  8
compi_laser_schneiden
 62
7
100
AcDbPolyline
 90
2
 70
0
 10
582.256079
 20
295.503104
 30
0.0
 10
561.339532
 20
298.626952
 30
0.0
  0
LWPOLYLINE
  5
487
100
AcDbEntity
  8
compi_laser_schneiden
 62
7
100
AcDbPolyline
 90
2
 70
0
 10
570.750832
 20
342.912275
 30
0.0
 10
582.255973
 20
341.378750
 30
0.0
  0
LWPOLYLINE
  5
488
100
AcDbEntity
  8
compi_laser_schneiden
 62
7
100
AcDbPolyline
 90
2
 70
0
 10
582.256079
 20
339.378641
 30
0.0
 10
582.256079
 20
341.378538
 30
0.0
  0
LWPOLYLINE
  5
489
100
AcDbEntity
  8
compi_laser_schneiden
 62
7
100
AcDbPolyline
 90
2
 70
0
 10
582.256079
 20
295.503104
 30
0.0
 10
582.256079
 20
297.502649
 30
0.0
  0
LWPOLYLINE
  5
48a
100
AcDbEntity
  8
compi_laser_schneiden
 62
7
100
AcDbPolyline
 90
6
 70
1
 10
569.530573
 20
299.210728
 30
0.0
 10
574.467345
 20
298.418742
 30
0.0
 10
574.625743
 20
299.405814
 30
0.0
 10
569.688970
 20
300.198153
 30
0.0
 10
569.530573
 20
299.210728
 30
0.0
 10
569.530573
 20
299.210728
 30
0.0
  0
LWPOLYLINE
  5
48b
100
AcDbEntity
  8
compi_laser_schneiden
 62
7
100
AcDbPolyline
 90
6
 70
1
 10
573.100049
 20
339.713321
 30
0.0
 10
578.036822
 20
338.920982
 30
0.0
 10
578.195219
 20
339.908055
 30
0.0
 10
573.258094
 20
340.700394
 30
0.0
 10
573.100049
 20
339.713321
 30
0.0
 10
573.100049
 20
339.713321
 30
0.0
  0
LWPOLYLINE
  5
48c
100
AcDbEntity
  8
compi_laser_schneiden
 62
7
100
AcDbPolyline
 90
3
 70
0
 10
566.623261
 20
333.214167
 30
0.0
 10
568.657378
 20
332.491678
 30
0.0
 10
570.750761
 20
342.912381
 30
0.0
  0
LWPOLYLINE
  5
48d
100
AcDbEntity
  8
compi_laser_schneiden
 62
7
100
AcDbPolyline
 90
8
 70
0
 10
653.904399
 20
495.486935
 30
0.0
 10
653.904399
 20
466.168632
 30
0.0
 10
656.904421
 20
468.076102
 30
0.0
 10
656.904421
 20
453.586460
 30
0.0
 10
561.911949
 20
453.586460
 30
0.0
 10
561.911949
 20
468.076102
 30
0.0
 10
564.911971
 20
466.168632
 30
0.0
 10
564.911971
 20
495.486935
 30
0.0
  0
LWPOLYLINE
  5
48e
100
AcDbEntity
  8
compi_laser_schneiden
 62
7
100
AcDbPolyline
 90
2
 70
0
 10
653.846861
 20
503.048939
 30
0.0
 10
653.846861
 20
495.486794
 30
0.0
  0
LWPOLYLINE
  5
48f
100
AcDbEntity
  8
compi_laser_schneiden
 62
7
100
AcDbPolyline
 90
2
 70
0
 10
653.846861
 20
515.611108
 30
0.0
 10
653.846861
 20
508.048964
 30
0.0
  0
LWPOLYLINE
  5
490
100
AcDbEntity
  8
compi_laser_schneiden
 62
7
100
AcDbPolyline
 90
2
 70
0
 10
653.846861
 20
515.611108
 30
0.0
 10
654.465986
 20
515.611108
 30
0.0
  0
LWPOLYLINE
  5
491
100
AcDbEntity
  8
compi_laser_schneiden
 62
7
100
AcDbPolyline
 90
2
 70
0
 10
564.350525
 20
515.611108
 30
0.0
 10
564.854645
 20
515.611108
 30
0.0
  0
LWPOLYLINE
  5
492
100
AcDbEntity
  8
compi_laser_schneiden
 62
7
100
AcDbPolyline
 90
2
 70
0
 10
564.854539
 20
508.049140
 30
0.0
 10
564.854539
 20
515.611285
 30
0.0
  0
LWPOLYLINE
  5
493
100
AcDbEntity
  8
compi_laser_schneiden
 62
7
100
AcDbPolyline
 90
2
 70
0
 10
564.854539
 20
495.486935
 30
0.0
 10
564.854539
 20
503.049080
 30
0.0
  0
LWPOLYLINE
  5
494
100
AcDbEntity
  8
compi_laser_schneiden
 62
7
100
AcDbPolyline
 90
2
 70
0
 10
564.969615
 20
557.487277
 30
0.0
 10
564.350490
 20
557.487277
 30
0.0
  0
LWPOLYLINE
  5
495
100
AcDbEntity
  8
compi_laser_schneiden
 62
7
100
AcDbPolyline
 90
2
 70
0
 10
654.488705
 20
557.487277
 30
0.0
 10
653.847002
 20
557.487277
 30
0.0
  0
LWPOLYLINE
  5
496
100
AcDbEntity
  8
compi_laser_schneiden
 62
7
100
AcDbPolyline
 90
2
 70
0
 10
653.846861
 20
569.532557
 30
0.0
 10
564.969439
 20
569.532557
 30
0.0
  0
LWPOLYLINE
  5
497
100
AcDbEntity
  8
compi_laser_schneiden
 62
2
100
AcDbPolyline
 90
2
 70
0
 10
653.846861
 20
561.487212
 30
0.0
 10
653.846861
 20
557.487418
 30
0.0
  0
LWPOLYLINE
  5
498
100
AcDbEntity
  8
compi_laser_schneiden
 62
2
100
AcDbPolyline
 90
2
 70
0
 10
653.846861
 20
569.532557
 30
0.0
 10
653.846861
 20
566.487379
 30
0.0
  0
LWPOLYLINE
  5
499
100
AcDbEntity
  8
compi_laser_schneiden
 62
7
100
AcDbPolyline
 90
2
 70
0
 10
564.969615
 20
561.490493
 30
0.0
 10
564.969615
 20
557.487171
 30
0.0
  0
LWPOLYLINE
  5
49a
100
AcDbEntity
  8
compi_laser_schneiden
 62
7
100
AcDbPolyline
 90
2
 70
0
 10
564.969615
 20
569.532557
 30
0.0
 10
564.969615
 20
566.484204
 30
0.0
  0
LWPOLYLINE
  5
49b
100
AcDbEntity
  8
compi_laser_schneiden
 62
7
100
AcDbPolyline
 90
5
 70
0
 10
653.846861
 20
508.049140
 30
0.0
 10
653.846861
 20
508.049140
 30
0.0
 10
656.846883
 20
508.049140
 30
0.0
 10
656.846883
 20
503.048868
 30
0.0
 10
653.846861
 20
503.048868
 30
0.0
  0
LWPOLYLINE
  5
49c
100
AcDbEntity
  8
compi_laser_schneiden
 62
7
100
AcDbPolyline
 90
4
 70
0
 10
564.854539
 20
503.048939
 30
0.0
 10
561.854517
 20
503.048939
 30
0.0
 10
561.854517
 20
508.049211
 30
0.0
 10
564.854539
 20
508.049211
 30
0.0
  0
LWPOLYLINE
  5
49d
100
AcDbEntity
  8
compi_laser_schneiden
 62
7
100
AcDbPolyline
 90
4
 70
0
 10
653.846861
 20
566.487449
 30
0.0
 10
656.846883
 20
566.487449
 30
0.0
 10
656.846883
 20
561.487177
 30
0.0
 10
653.846861
 20
561.487177
 30
0.0
  0
LWPOLYLINE
  5
49e
100
AcDbEntity
  8
compi_laser_schneiden
 62
7
100
AcDbPolyline
 90
4
 70
0
 10
564.969615
 20
561.484284
 30
0.0
 10
561.969593
 20
561.484284
 30
0.0
 10
561.969593
 20
566.484557
 30
0.0
 10
564.969615
 20
566.484204
 30
0.0
  0
LWPOLYLINE
  5
49f
100
AcDbEntity
  8
compi_laser_schneiden
 62
7
100
AcDbPolyline
 90
2
 70
0
 10
675.224736
 20
516.735587
 30
0.0
 10
670.019852
 20
551.331446
 30
0.0
  0
LWPOLYLINE
  5
4a0
100
AcDbEntity
  8
compi_laser_schneiden
 62
7
100
AcDbPolyline
 90
2
 70
0
 10
654.465951
 20
513.611599
 30
0.0
 10
675.224806
 20
516.735446
 30
0.0
  0
LWPOLYLINE
  5
4a1
100
AcDbEntity
  8
compi_laser_schneiden
 62
7
100
AcDbPolyline
 90
2
 70
0
 10
665.971198
 20
561.020770
 30
0.0
 10
654.466057
 20
559.487245
 30
0.0
  0
LWPOLYLINE
  5
4a2
100
AcDbEntity
  8
compi_laser_schneiden
 62
7
100
AcDbPolyline
 90
2
 70
0
 10
654.465951
 20
557.487136
 30
0.0
 10
654.465951
 20
559.487033
 30
0.0
  0
LWPOLYLINE
  5
4a3
100
AcDbEntity
  8
compi_laser_schneiden
 62
7
100
AcDbPolyline
 90
2
 70
0
 10
654.465951
 20
513.611599
 30
0.0
 10
654.465951
 20
515.611144
 30
0.0
  0
LWPOLYLINE
  5
4a4
100
AcDbEntity
  8
compi_laser_schneiden
 62
7
100
AcDbPolyline
 90
6
 70
1
 10
667.191457
 20
517.319188
 30
0.0
 10
662.254684
 20
516.527202
 30
0.0
 10
662.096287
 20
517.514274
 30
0.0
 10
667.033059
 20
518.306613
 30
0.0
 10
667.191457
 20
517.319188
 30
0.0
 10
667.191457
 20
517.319188
 30
0.0
  0
LWPOLYLINE
  5
4a5
100
AcDbEntity
  8
compi_laser_schneiden
 62
7
100
AcDbPolyline
 90
6
 70
1
 10
663.621980
 20
557.821816
 30
0.0
 10
658.685208
 20
557.029477
 30
0.0
 10
658.526811
 20
558.016549
 30
0.0
 10
663.463936
 20
558.808888
 30
0.0
 10
663.621980
 20
557.821816
 30
0.0
 10
663.621980
 20
557.821816
 30
0.0
  0
LWPOLYLINE
  5
4a6
100
AcDbEntity
  8
compi_laser_schneiden
 62
7
100
AcDbPolyline
 90
3
 70
0
 10
670.019888
 20
551.331587
 30
0.0
 10
668.143815
 20
550.609098
 30
0.0
 10
665.971057
 20
561.020629
 30
0.0
  0
LWPOLYLINE
  5
4a7
100
AcDbEntity
  8
compi_laser_schneiden
 62
7
100
AcDbPolyline
 90
2
 70
0
 10
543.433978
 20
516.735587
 30
0.0
 10
548.638862
 20
551.331446
 30
0.0
  0
LWPOLYLINE
  5
4a8
100
AcDbEntity
  8
compi_laser_schneiden
 62
7
100
AcDbPolyline
 90
2
 70
0
 10
564.350525
 20
513.611599
 30
0.0
 10
543.433978
 20
516.735446
 30
0.0
  0
LWPOLYLINE
  5
4a9
100
AcDbEntity
  8
compi_laser_schneiden
 62
7
100
AcDbPolyline
 90
2
 70
0
 10
552.845278
 20
561.020770
 30
0.0
 10
564.350420
 20
559.487245
 30
0.0
  0
LWPOLYLINE
  5
4aa
100
AcDbEntity
  8
compi_laser_schneiden
 62
7
100
AcDbPolyline
 90
2
 70
0
 10
564.350525
 20
557.487136
 30
0.0
 10
564.350525
 20
559.487033
 30
0.0
  0
LWPOLYLINE
  5
4ab
100
AcDbEntity
  8
compi_laser_schneiden
 62
7
100
AcDbPolyline
 90
2
 70
0
 10
564.350525
 20
513.611599
 30
0.0
 10
564.350525
 20
515.611144
 30
0.0
  0
LWPOLYLINE
  5
4ac
100
AcDbEntity
  8
compi_laser_schneiden
 62
7
100
AcDbPolyline
 90
6
 70
1
 10
551.625020
 20
517.319188
 30
0.0
 10
556.561792
 20
516.527202
 30
0.0
 10
556.720189
 20
517.514274
 30
0.0
 10
551.783417
 20
518.306613
 30
0.0
 10
551.625020
 20
517.319188
 30
0.0
 10
551.625020
 20
517.319188
 30
0.0
  0
LWPOLYLINE
  5
4ad
100
AcDbEntity
  8
compi_laser_schneiden
 62
7
100
AcDbPolyline
 90
6
 70
1
 10
555.194496
 20
557.821816
 30
0.0
 10
560.131268
 20
557.029477
 30
0.0
 10
560.289665
 20
558.016549
 30
0.0
 10
555.352540
 20
558.808888
 30
0.0
 10
555.194496
 20
557.821816
 30
0.0
 10
555.194496
 20
557.821816
 30
0.0
  0
LWPOLYLINE
  5
4ae
100
AcDbEntity
  8
compi_laser_schneiden
 62
7
100
AcDbPolyline
 90
3
 70
0
 10
548.638826
 20
551.331587
 30
0.0
 10
550.672943
 20
550.609098
 30
0.0
 10
552.845349
 20
561.020629
 30
0.0
  0
LWPOLYLINE
  5
4af
100
AcDbEntity
  8
compi_laser_schneiden
 62
7
100
AcDbPolyline
 90
2
 70
0
 10
170.629005
 20
510.852949
 30
0.0
 10
112.511336
 20
510.852949
 30
0.0
  0
LWPOLYLINE
  5
4b0
100
AcDbEntity
  8
compi_laser_schneiden
 62
7
100
AcDbPolyline
 90
2
 70
0
 10
112.520578
 20
451.901313
 30
0.0
 10
170.461153
 20
451.901313
 30
0.0
  0
LWPOLYLINE
  5
4b1
100
AcDbEntity
  8
compi_laser_schneiden
 62
7
100
AcDbPolyline
 90
2
 70
0
 10
170.461224
 20
396.433216
 30
0.0
 10
112.510418
 20
396.433216
 30
0.0
  0
LWPOLYLINE
  5
4b2
100
AcDbEntity
  8
compi_laser_schneiden
 62
7
100
AcDbPolyline
 90
2
 70
0
 10
111.544583
 20
451.935779
 30
0.0
 10
111.544583
 20
511.818749
 30
0.0
  0
SPLINE
  5
4b3
100
AcDbEntity
  8
compi_laser_schneiden
 62
7
100
AcDbSpline
 70
8
 71
3
 72
8
 73
4
 74
0
 40
0
 40
0
 40
0
 40
0
 40
1
 40
1
 40
1
 40
1
 10
112.107865
 20
383.343219
 30
0.0
 10
112.107865
 20
383.538305
 30
0.0
 10
112.262029
 20
383.695997
 30
0.0
 10
112.452176
 20
383.695997
 30
0.0
  0
LWPOLYLINE
  5
4b4
100
AcDbEntity
  8
compi_laser_schneiden
 62
7
100
AcDbPolyline
 90
2
 70
0
 10
171.427235
 20
451.935779
 30
0.0
 10
171.427941
 20
511.818749
 30
0.0
  0
SPLINE
  5
4b5
100
AcDbEntity
  8
compi_laser_schneiden
 62
7
100
AcDbSpline
 70
8
 71
3
 72
8
 73
4
 74
0
 40
0
 40
0
 40
0
 40
0
 40
1
 40
1
 40
1
 40
1
 10
170.853831
 20
383.695997
 30
0.0
 10
171.043979
 20
383.695997
 30
0.0
 10
171.198142
 20
383.538305
 30
0.0
 10
171.198142
 20
383.343219
 30
0.0
  0
SPLINE
  5
4b6
100
AcDbEntity
  8
compi_laser_schneiden
 62
7
100
AcDbSpline
 70
8
 71
3
 72
8
 73
4
 74
0
 40
0
 40
0
 40
0
 40
0
 40
1
 40
1
 40
1
 40
1
 10
171.198142
 20
383.343219
 30
0.0
 10
171.198142
 20
383.148485
 30
0.0
 10
171.043979
 20
382.990441
 30
0.0
 10
170.853831
 20
382.990441
 30
0.0
  0
LWPOLYLINE
  5
4b7
100
AcDbEntity
  8
compi_laser_schneiden
 62
7
100
AcDbPolyline
 90
2
 70
0
 10
112.452176
 20
383.695997
 30
0.0
 10
170.853831
 20
383.695997
 30
0.0
  0
SPLINE
  5
4b8
100
AcDbEntity
  8
compi_laser_schneiden
 62
7
100
AcDbSpline
 70
8
 71
3
 72
8
 73
4
 74
0
 40
0
 40
0
 40
0
 40
0
 40
1
 40
1
 40
1
 40
1
 10
112.452176
 20
382.990441
 30
0.0
 10
112.262029
 20
382.990441
 30
0.0
 10
112.107865
 20
383.148485
 30
0.0
 10
112.107865
 20
383.343219
 30
0.0
  0
LWPOLYLINE
  5
4b9
100
AcDbEntity
  8
compi_laser_schneiden
 62
7
100
AcDbPolyline
 90
2
 70
0
 10
170.853831
 20
382.990441
 30
0.0
 10
112.452176
 20
382.990441
 30
0.0
  0
LWPOLYLINE
  5
4ba
100
AcDbEntity
  8
compi_laser_schneiden
 62
7
100
AcDbPolyline
 90
2
 70
0
 10
66.167484
 20
537.352097
 30
0.0
 10
66.167484
 20
517.352419
 30
0.0
  0
LWPOLYLINE
  5
4bb
100
AcDbEntity
  8
compi_laser_schneiden
 62
7
100
AcDbPolyline
 90
2
 70
0
 10
69.167471
 20
537.306271
 30
0.0
 10
69.167471
 20
517.306594
 30
0.0
  0
LWPOLYLINE
  5
4bc
100
AcDbEntity
  8
compi_laser_schneiden
 62
7
100
AcDbPolyline
 90
2
 70
0
 10
89.167643
 20
537.306271
 30
0.0
 10
89.167643
 20
517.306241
 30
0.0
  0
LWPOLYLINE
  5
4bd
100
AcDbEntity
  8
compi_laser_schneiden
 62
7
100
AcDbPolyline
 90
2
 70
0
 10
170.629006
 20
297.997173
 30
0.0
 10
112.511337
 20
297.997173
 30
0.0
  0
LWPOLYLINE
  5
4be
100
AcDbEntity
  8
compi_laser_schneiden
 62
7
100
AcDbPolyline
 90
2
 70
0
 10
112.520579
 20
239.045572
 30
0.0
 10
170.461154
 20
239.045572
 30
0.0
  0
LWPOLYLINE
  5
4bf
100
AcDbEntity
  8
compi_laser_schneiden
 62
7
100
AcDbPolyline
 90
2
 70
0
 10
170.461225
 20
183.577475
 30
0.0
 10
112.510419
 20
183.577475
 30
0.0
  0
LWPOLYLINE
  5
4c0
100
AcDbEntity
  8
compi_laser_schneiden
 62
7
100
AcDbPolyline
 90
2
 70
0
 10
111.544584
 20
239.080038
 30
0.0
 10
111.544584
 20
298.963008
 30
0.0
  0
SPLINE
  5
4c1
100
AcDbEntity
  8
compi_laser_schneiden
 62
7
100
AcDbSpline
 70
8
 71
3
 72
8
 73
4
 74
0
 40
0
 40
0
 40
0
 40
0
 40
1
 40
1
 40
1
 40
1
 10
112.107865
 20
170.487479
 30
0.0
 10
112.107865
 20
170.682565
 30
0.0
 10
112.262029
 20
170.840257
 30
0.0
 10
112.452176
 20
170.840257
 30
0.0
  0
LWPOLYLINE
  5
4c2
100
AcDbEntity
  8
compi_laser_schneiden
 62
7
100
AcDbPolyline
 90
2
 70
0
 10
171.427236
 20
239.080038
 30
0.0
 10
171.427942
 20
298.963008
 30
0.0
  0
SPLINE
  5
4c3
100
AcDbEntity
  8
compi_laser_schneiden
 62
7
100
AcDbSpline
 70
8
 71
3
 72
8
 73
4
 74
0
 40
0
 40
0
 40
0
 40
0
 40
1
 40
1
 40
1
 40
1
 10
170.853831
 20
170.840257
 30
0.0
 10
171.043979
 20
170.840257
 30
0.0
 10
171.198142
 20
170.682565
 30
0.0
 10
171.198142
 20
170.487479
 30
0.0
  0
SPLINE
  5
4c4
100
AcDbEntity
  8
compi_laser_schneiden
 62
7
100
AcDbSpline
 70
8
 71
3
 72
8
 73
4
 74
0
 40
0
 40
0
 40
0
 40
0
 40
1
 40
1
 40
1
 40
1
 10
171.198142
 20
170.487479
 30
0.0
 10
171.198142
 20
170.292746
 30
0.0
 10
171.043979
 20
170.134702
 30
0.0
 10
170.853831
 20
170.134702
 30
0.0
  0
LWPOLYLINE
  5
4c5
100
AcDbEntity
  8
compi_laser_schneiden
 62
7
100
AcDbPolyline
 90
2
 70
0
 10
112.452176
 20
170.840257
 30
0.0
 10
170.853831
 20
170.840257
 30
0.0
  0
SPLINE
  5
4c6
100
AcDbEntity
  8
compi_laser_schneiden
 62
7
100
AcDbSpline
 70
8
 71
3
 72
8
 73
4
 74
0
 40
0
 40
0
 40
0
 40
0
 40
1
 40
1
 40
1
 40
1
 10
112.452176
 20
170.134702
 30
0.0
 10
112.262029
 20
170.134702
 30
0.0
 10
112.107865
 20
170.292746
 30
0.0
 10
112.107865
 20
170.487479
 30
0.0
  0
LWPOLYLINE
  5
4c7
100
AcDbEntity
  8
compi_laser_schneiden
 62
7
100
AcDbPolyline
 90
2
 70
0
 10
170.853831
 20
170.134702
 30
0.0
 10
112.452176
 20
170.134702
 30
0.0
  0
LWPOLYLINE
  5
4c8
100
AcDbEntity
  8
compi_laser_schneiden
 62
7
100
AcDbPolyline
 90
2
 70
0
 10
66.167484
 20
324.496358
 30
0.0
 10
66.167484
 20
304.496680
 30
0.0
  0
LWPOLYLINE
  5
4c9
100
AcDbEntity
  8
compi_laser_schneiden
 62
7
100
AcDbPolyline
 90
2
 70
0
 10
69.167471
 20
324.450532
 30
0.0
 10
69.167471
 20
304.450854
 30
0.0
  0
LWPOLYLINE
  5
4ca
100
AcDbEntity
  8
compi_laser_schneiden
 62
7
100
AcDbPolyline
 90
2
 70
0
 10
89.167643
 20
324.450532
 30
0.0
 10
89.167643
 20
304.450501
 30
0.0
  0
LWPOLYLINE
  5
4cb
100
AcDbEntity
  8
compi_laser_schneiden
 62
7
100
AcDbPolyline
 90
2
 70
0
 10
259.019454
 20
158.018302
 30
0.0
 10
317.137123
 20
158.018302
 30
0.0
  0
LWPOLYLINE
  5
4cc
100
AcDbEntity
  8
compi_laser_schneiden
 62
7
100
AcDbPolyline
 90
2
 70
0
 10
317.127880
 20
216.970079
 30
0.0
 10
259.187305
 20
216.970079
 30
0.0
  0
LWPOLYLINE
  5
4cd
100
AcDbEntity
  8
compi_laser_schneiden
 62
7
100
AcDbPolyline
 90
2
 70
0
 10
259.187235
 20
272.438211
 30
0.0
 10
317.138040
 20
272.438211
 30
0.0
  0
LWPOLYLINE
  5
4ce
100
AcDbEntity
  8
compi_laser_schneiden
 62
7
100
AcDbPolyline
 90
2
 70
0
 10
318.103875
 20
216.935648
 30
0.0
 10
318.103875
 20
157.052679
 30
0.0
  0
SPLINE
  5
4cf
100
AcDbEntity
  8
compi_laser_schneiden
 62
7
100
AcDbSpline
 70
8
 71
3
 72
8
 73
4
 74
0
 40
0
 40
0
 40
0
 40
0
 40
1
 40
1
 40
1
 40
1
 10
317.540630
 20
285.527995
 30
0.0
 10
317.540630
 20
285.332909
 30
0.0
 10
317.386467
 20
285.175217
 30
0.0
 10
317.196319
 20
285.175217
 30
0.0
  0
LWPOLYLINE
  5
4d0
100
AcDbEntity
  8
compi_laser_schneiden
 62
7
100
AcDbPolyline
 90
2
 70
0
 10
258.221224
 20
216.935648
 30
0.0
 10
258.220518
 20
157.052679
 30
0.0
  0
SPLINE
  5
4d1
100
AcDbEntity
  8
compi_laser_schneiden
 62
7
100
AcDbSpline
 70
8
 71
3
 72
8
 73
4
 74
0
 40
0
 40
0
 40
0
 40
0
 40
1
 40
1
 40
1
 40
1
 10
258.794664
 20
285.175217
 30
0.0
 10
258.604517
 20
285.175217
 30
0.0
 10
258.450353
 20
285.332909
 30
0.0
 10
258.450353
 20
285.527995
 30
0.0
  0
SPLINE
  5
4d2
100
AcDbEntity
  8
compi_laser_schneiden
 62
7
100
AcDbSpline
 70
8
 71
3
 72
8
 73
4
 74
0
 40
0
 40
0
 40
0
 40
0
 40
1
 40
1
 40
1
 40
1
 10
258.450353
 20
285.527995
 30
0.0
 10
258.450353
 20
285.722729
 30
0.0
 10
258.604517
 20
285.880773
 30
0.0
 10
258.794664
 20
285.880773
 30
0.0
  0
LWPOLYLINE
  5
4d3
100
AcDbEntity
  8
compi_laser_schneiden
 62
7
100
AcDbPolyline
 90
2
 70
0
 10
317.196319
 20
285.175217
 30
0.0
 10
258.794664
 20
285.175217
 30
0.0
  0
SPLINE
  5
4d4
100
AcDbEntity
  8
compi_laser_schneiden
 62
7
100
AcDbSpline
 70
8
 71
3
 72
8
 73
4
 74
0
 40
0
 40
0
 40
0
 40
0
 40
1
 40
1
 40
1
 40
1
 10
317.196319
 20
285.880773
 30
0.0
 10
317.386467
 20
285.880773
 30
0.0
 10
317.540630
 20
285.722729
 30
0.0
 10
317.540630
 20
285.527995
 30
0.0
  0
LWPOLYLINE
  5
4d5
100
AcDbEntity
  8
compi_laser_schneiden
 62
7
100
AcDbPolyline
 90
2
 70
0
 10
258.794664
 20
285.880773
 30
0.0
 10
317.196319
 20
285.880773
 30
0.0
  0
LWPOLYLINE
  5
4d6
100
AcDbEntity
  8
compi_laser_schneiden
 62
7
100
AcDbPolyline
 90
2
 70
0
 10
363.481152
 20
131.519329
 30
0.0
 10
363.481152
 20
151.519006
 30
0.0
  0
LWPOLYLINE
  5
4d7
100
AcDbEntity
  8
compi_laser_schneiden
 62
7
100
AcDbPolyline
 90
2
 70
0
 10
360.481130
 20
131.565154
 30
0.0
 10
360.481130
 20
151.564832
 30
0.0
  0
LWPOLYLINE
  5
4d8
100
AcDbEntity
  8
compi_laser_schneiden
 62
7
100
AcDbPolyline
 90
2
 70
0
 10
340.480993
 20
131.565154
 30
0.0
 10
340.480993
 20
151.564832
 30
0.0
  0
LWPOLYLINE
  5
4d9
100
AcDbEntity
  8
compi_laser_schneiden
 62
7
100
AcDbPolyline
 90
2
 70
0
 10
259.019454
 20
370.874218
 30
0.0
 10
317.137123
 20
370.874218
 30
0.0
  0
LWPOLYLINE
  5
4da
100
AcDbEntity
  8
compi_laser_schneiden
 62
7
100
AcDbPolyline
 90
2
 70
0
 10
317.127880
 20
429.825677
 30
0.0
 10
259.187305
 20
429.825677
 30
0.0
  0
LWPOLYLINE
  5
4db
100
AcDbEntity
  8
compi_laser_schneiden
 62
7
100
AcDbPolyline
 90
2
 70
0
 10
259.187235
 20
485.293774
 30
0.0
 10
317.138040
 20
485.293774
 30
0.0
  0
LWPOLYLINE
  5
4dc
100
AcDbEntity
  8
compi_laser_schneiden
 62
7
100
AcDbPolyline
 90
2
 70
0
 10
318.103875
 20
429.791211
 30
0.0
 10
318.103875
 20
369.908242
 30
0.0
  0
SPLINE
  5
4dd
100
AcDbEntity
  8
compi_laser_schneiden
 62
7
100
AcDbSpline
 70
8
 71
3
 72
8
 73
4
 74
0
 40
0
 40
0
 40
0
 40
0
 40
1
 40
1
 40
1
 40
1
 10
317.540630
 20
498.383735
 30
0.0
 10
317.540630
 20
498.188649
 30
0.0
 10
317.386467
 20
498.030957
 30
0.0
 10
317.196319
 20
498.030957
 30
0.0
  0
LWPOLYLINE
  5
4de
100
AcDbEntity
  8
compi_laser_schneiden
 62
7
100
AcDbPolyline
 90
2
 70
0
 10
258.221224
 20
429.791211
 30
0.0
 10
258.220518
 20
369.908242
 30
0.0
  0
SPLINE
  5
4df
100
AcDbEntity
  8
compi_laser_schneiden
 62
7
100
AcDbSpline
 70
8
 71
3
 72
8
 73
4
 74
0
 40
0
 40
0
 40
0
 40
0
 40
1
 40
1
 40
1
 40
1
 10
258.794664
 20
498.030957
 30
0.0
 10
258.604517
 20
498.030957
 30
0.0
 10
258.450353
 20
498.188649
 30
0.0
 10
258.450353
 20
498.383735
 30
0.0
  0
SPLINE
  5
4e0
100
AcDbEntity
  8
compi_laser_schneiden
 62
7
100
AcDbSpline
 70
8
 71
3
 72
8
 73
4
 74
0
 40
0
 40
0
 40
0
 40
0
 40
1
 40
1
 40
1
 40
1
 10
258.450353
 20
498.383735
 30
0.0
 10
258.450353
 20
498.578468
 30
0.0
 10
258.604517
 20
498.736512
 30
0.0
 10
258.794664
 20
498.736512
 30
0.0
  0
LWPOLYLINE
  5
4e1
100
AcDbEntity
  8
compi_laser_schneiden
 62
7
100
AcDbPolyline
 90
2
 70
0
 10
317.196319
 20
498.030957
 30
0.0
 10
258.794664
 20
498.030957
 30
0.0
  0
SPLINE
  5
4e2
100
AcDbEntity
  8
compi_laser_schneiden
 62
7
100
AcDbSpline
 70
8
 71
3
 72
8
 73
4
 74
0
 40
0
 40
0
 40
0
 40
0
 40
1
 40
1
 40
1
 40
1
 10
317.196319
 20
498.736512
 30
0.0
 10
317.386467
 20
498.736512
 30
0.0
 10
317.540630
 20
498.578468
 30
0.0
 10
317.540630
 20
498.383735
 30
0.0
  0
LWPOLYLINE
  5
4e3
100
AcDbEntity
  8
compi_laser_schneiden
 62
7
100
AcDbPolyline
 90
2
 70
0
 10
258.794664
 20
498.736512
 30
0.0
 10
317.196319
 20
498.736512
 30
0.0
  0
LWPOLYLINE
  5
4e4
100
AcDbEntity
  8
compi_laser_schneiden
 62
7
100
AcDbPolyline
 90
2
 70
0
 10
363.481152
 20
344.374892
 30
0.0
 10
363.481152
 20
364.374569
 30
0.0
  0
LWPOLYLINE
  5
4e5
100
AcDbEntity
  8
compi_laser_schneiden
 62
7
100
AcDbPolyline
 90
2
 70
0
 10
360.481130
 20
344.420717
 30
0.0
 10
360.481130
 20
364.420395
 30
0.0
  0
LWPOLYLINE
  5
4e6
100
AcDbEntity
  8
compi_laser_schneiden
 62
7
100
AcDbPolyline
 90
2
 70
0
 10
340.480640
 20
344.420717
 30
0.0
 10
340.480640
 20
364.420748
 30
0.0
  0
LWPOLYLINE
  5
4e7
100
AcDbEntity
  8
compi_laser_schneiden
 62
7
100
AcDbPolyline
 90
2
 70
0
 10
545.553044
 20
431.293268
 30
0.0
 10
487.435374
 20
431.293268
 30
0.0
  0
LWPOLYLINE
  5
4e8
100
AcDbEntity
  8
compi_laser_schneiden
 62
7
100
AcDbPolyline
 90
2
 70
0
 10
487.444617
 20
372.341491
 30
0.0
 10
545.385192
 20
372.341491
 30
0.0
  0
LWPOLYLINE
  5
4e9
100
AcDbEntity
  8
compi_laser_schneiden
 62
7
100
AcDbPolyline
 90
2
 70
0
 10
545.385263
 20
316.873571
 30
0.0
 10
487.434457
 20
316.873571
 30
0.0
  0
LWPOLYLINE
  5
4ea
100
AcDbEntity
  8
compi_laser_schneiden
 62
7
100
AcDbPolyline
 90
2
 70
0
 10
486.468622
 20
372.375922
 30
0.0
 10
486.468622
 20
432.258892
 30
0.0
  0
SPLINE
  5
4eb
100
AcDbEntity
  8
compi_laser_schneiden
 62
7
100
AcDbSpline
 70
8
 71
3
 72
8
 73
4
 74
0
 40
0
 40
0
 40
0
 40
0
 40
1
 40
1
 40
1
 40
1
 10
487.031902
 20
303.783575
 30
0.0
 10
487.031902
 20
303.978661
 30
0.0
 10
487.186066
 20
304.136353
 30
0.0
 10
487.376214
 20
304.136353
 30
0.0
  0
LWPOLYLINE
  5
4ec
100
AcDbEntity
  8
compi_laser_schneiden
 62
7
100
AcDbPolyline
 90
2
 70
0
 10
546.351274
 20
372.375922
 30
0.0
 10
546.351980
 20
432.258892
 30
0.0
  0
SPLINE
  5
4ed
100
AcDbEntity
  8
compi_laser_schneiden
 62
7
100
AcDbSpline
 70
8
 71
3
 72
8
 73
4
 74
0
 40
0
 40
0
 40
0
 40
0
 40
1
 40
1
 40
1
 40
1
 10
545.777869
 20
304.136353
 30
0.0
 10
545.968016
 20
304.136353
 30
0.0
 10
546.122180
 20
303.978661
 30
0.0
 10
546.122180
 20
303.783575
 30
0.0
  0
SPLINE
  5
4ee
100
AcDbEntity
  8
compi_laser_schneiden
 62
7
100
AcDbSpline
 70
8
 71
3
 72
8
 73
4
 74
0
 40
0
 40
0
 40
0
 40
0
 40
1
 40
1
 40
1
 40
1
 10
546.122180
 20
303.783575
 30
0.0
 10
546.122180
 20
303.588842
 30
0.0
 10
545.968016
 20
303.430797
 30
0.0
 10
545.777869
 20
303.430797
 30
0.0
  0
LWPOLYLINE
  5
4ef
100
AcDbEntity
  8
compi_laser_schneiden
 62
7
100
AcDbPolyline
 90
2
 70
0
 10
487.376214
 20
304.136353
 30
0.0
 10
545.777869
 20
304.136353
 30
0.0
  0
SPLINE
  5
4f0
100
AcDbEntity
  8
compi_laser_schneiden
 62
7
100
AcDbSpline
 70
8
 71
3
 72
8
 73
4
 74
0
 40
0
 40
0
 40
0
 40
0
 40
1
 40
1
 40
1
 40
1
 10
487.376214
 20
303.430797
 30
0.0
 10
487.186066
 20
303.430797
 30
0.0
 10
487.031902
 20
303.588842
 30
0.0
 10
487.031902
 20
303.783575
 30
0.0
  0
LWPOLYLINE
  5
4f1
100
AcDbEntity
  8
compi_laser_schneiden
 62
7
100
AcDbPolyline
 90
2
 70
0
 10
545.777869
 20
303.430797
 30
0.0
 10
487.376214
 20
303.430797
 30
0.0
  0
LWPOLYLINE
  5
4f2
100
AcDbEntity
  8
compi_laser_schneiden
 62
7
100
AcDbPolyline
 90
2
 70
0
 10
441.091205
 20
457.792242
 30
0.0
 10
441.091205
 20
437.792564
 30
0.0
  0
LWPOLYLINE
  5
4f3
100
AcDbEntity
  8
compi_laser_schneiden
 62
7
100
AcDbPolyline
 90
2
 70
0
 10
444.091192
 20
457.746451
 30
0.0
 10
444.091192
 20
437.746773
 30
0.0
  0
LWPOLYLINE
  5
4f4
100
AcDbEntity
  8
compi_laser_schneiden
 62
7
100
AcDbPolyline
 90
2
 70
0
 10
464.091363
 20
457.746451
 30
0.0
 10
464.091363
 20
437.746773
 30
0.0
  0
LWPOLYLINE
  5
4f5
100
AcDbEntity
  8
compi_laser_schneiden
 62
7
100
AcDbPolyline
 90
2
 70
0
 10
545.553044
 20
218.437352
 30
0.0
 10
487.435374
 20
218.437352
 30
0.0
  0
LWPOLYLINE
  5
4f6
100
AcDbEntity
  8
compi_laser_schneiden
 62
7
100
AcDbPolyline
 90
2
 70
0
 10
487.444617
 20
159.485928
 30
0.0
 10
545.385192
 20
159.485928
 30
0.0
  0
LWPOLYLINE
  5
4f7
100
AcDbEntity
  8
compi_laser_schneiden
 62
7
100
AcDbPolyline
 90
2
 70
0
 10
545.385263
 20
104.017831
 30
0.0
 10
487.434457
 20
104.017831
 30
0.0
  0
LWPOLYLINE
  5
4f8
100
AcDbEntity
  8
compi_laser_schneiden
 62
7
100
AcDbPolyline
 90
2
 70
0
 10
486.468622
 20
159.520359
 30
0.0
 10
486.468622
 20
219.403329
 30
0.0
  0
SPLINE
  5
4f9
100
AcDbEntity
  8
compi_laser_schneiden
 62
7
100
AcDbSpline
 70
8
 71
3
 72
8
 73
4
 74
0
 40
0
 40
0
 40
0
 40
0
 40
1
 40
1
 40
1
 40
1
 10
487.031902
 20
90.927835
 30
0.0
 10
487.031902
 20
91.122922
 30
0.0
 10
487.186066
 20
91.280613
 30
0.0
 10
487.376214
 20
91.280613
 30
0.0
  0
LWPOLYLINE
  5
4fa
100
AcDbEntity
  8
compi_laser_schneiden
 62
7
100
AcDbPolyline
 90
2
 70
0
 10
546.351274
 20
159.520359
 30
0.0
 10
546.351980
 20
219.403329
 30
0.0
  0
SPLINE
  5
4fb
100
AcDbEntity
  8
compi_laser_schneiden
 62
7
100
AcDbSpline
 70
8
 71
3
 72
8
 73
4
 74
0
 40
0
 40
0
 40
0
 40
0
 40
1
 40
1
 40
1
 40
1
 10
545.777869
 20
91.280613
 30
0.0
 10
545.968016
 20
91.280613
 30
0.0
 10
546.122180
 20
91.122922
 30
0.0
 10
546.122180
 20
90.927835
 30
0.0
  0
SPLINE
  5
4fc
100
AcDbEntity
  8
compi_laser_schneiden
 62
7
100
AcDbSpline
 70
8
 71
3
 72
8
 73
4
 74
0
 40
0
 40
0
 40
0
 40
0
 40
1
 40
1
 40
1
 40
1
 10
546.122180
 20
90.927835
 30
0.0
 10
546.122180
 20
90.733102
 30
0.0
 10
545.968016
 20
90.575058
 30
0.0
 10
545.777869
 20
90.575058
 30
0.0
  0
LWPOLYLINE
  5
4fd
100
AcDbEntity
  8
compi_laser_schneiden
 62
7
100
AcDbPolyline
 90
2
 70
0
 10
487.376214
 20
91.280613
 30
0.0
 10
545.777869
 20
91.280613
 30
0.0
  0
SPLINE
  5
4fe
100
AcDbEntity
  8
compi_laser_schneiden
 62
7
100
AcDbSpline
 70
8
 71
3
 72
8
 73
4
 74
0
 40
0
 40
0
 40
0
 40
0
 40
1
 40
1
 40
1
 40
1
 10
487.376214
 20
90.575058
 30
0.0
 10
487.186066
 20
90.575058
 30
0.0
 10
487.031902
 20
90.733102
 30
0.0
 10
487.031902
 20
90.927835
 30
0.0
  0
LWPOLYLINE
  5
4ff
100
AcDbEntity
  8
compi_laser_schneiden
 62
7
100
AcDbPolyline
 90
2
 70
0
 10
545.777869
 20
90.575058
 30
0.0
 10
487.376214
 20
90.575058
 30
0.0
  0
LWPOLYLINE
  5
500
100
AcDbEntity
  8
compi_laser_schneiden
 62
7
100
AcDbPolyline
 90
2
 70
0
 10
441.091205
 20
244.936679
 30
0.0
 10
441.091205
 20
224.937001
 30
0.0
  0
LWPOLYLINE
  5
501
100
AcDbEntity
  8
compi_laser_schneiden
 62
7
100
AcDbPolyline
 90
2
 70
0
 10
444.091192
 20
244.890853
 30
0.0
 10
444.091192
 20
224.891175
 30
0.0
  0
LWPOLYLINE
  5
502
100
AcDbEntity
  8
compi_laser_schneiden
 62
7
100
AcDbPolyline
 90
2
 70
0
 10
464.092034
 20
244.890853
 30
0.0
 10
464.092034
 20
224.890822
 30
0.0
  0
LWPOLYLINE
  5
503
100
AcDbEntity
  8
compi_laser_schneiden
 62
7
100
AcDbPolyline
 90
2
 70
0
 10
582.817631
 20
277.378476
 30
0.0
 10
671.810059
 20
277.378476
 30
0.0
  0
LWPOLYLINE
  5
504
100
AcDbEntity
  8
compi_laser_schneiden
 62
7
100
AcDbPolyline
 90
2
 70
0
 10
582.760093
 20
297.502649
 30
0.0
 10
671.752520
 20
297.502649
 30
0.0
  0
LWPOLYLINE
  5
505
100
AcDbEntity
  8
compi_laser_schneiden
 62
7
100
AcDbPolyline
 90
2
 70
0
 10
671.752415
 20
339.378817
 30
0.0
 10
582.874992
 20
339.378817
 30
0.0
  0
LWPOLYLINE
  5
506
100
AcDbEntity
  8
compi_laser_schneiden
 62
7
100
AcDbPolyline
 90
6
 70
1
 10
599.927318
 20
325.206323
 30
0.0
 10
593.577318
 20
325.206323
 30
0.0
 10
593.577318
 20
334.143242
 30
0.0
 10
599.927318
 20
334.143242
 30
0.0
 10
599.927318
 20
325.206323
 30
0.0
 10
599.927318
 20
325.206323
 30
0.0
  0
LWPOLYLINE
  5
507
100
AcDbEntity
  8
compi_laser_schneiden
 62
7
100
AcDbPolyline
 90
6
 70
1
 10
607.335651
 20
325.206323
 30
0.0
 10
600.985651
 20
325.206323
 30
0.0
 10
600.985651
 20
334.143242
 30
0.0
 10
607.335651
 20
334.143242
 30
0.0
 10
607.335651
 20
325.206323
 30
0.0
 10
607.335651
 20
325.206323
 30
0.0
  0
LWPOLYLINE
  5
508
100
AcDbEntity
  8
compi_laser_schneiden
 62
7
100
AcDbPolyline
 90
6
 70
1
 10
614.743984
 20
325.206323
 30
0.0
 10
608.393984
 20
325.206323
 30
0.0
 10
608.393984
 20
334.143242
 30
0.0
 10
614.743984
 20
334.143242
 30
0.0
 10
614.743984
 20
325.206323
 30
0.0
 10
614.743984
 20
325.206323
 30
0.0
  0
LWPOLYLINE
  5
509
100
AcDbEntity
  8
compi_laser_schneiden
 62
7
100
AcDbPolyline
 90
6
 70
1
 10
622.152318
 20
325.206323
 30
0.0
 10
615.802318
 20
325.206323
 30
0.0
 10
615.802318
 20
334.143242
 30
0.0
 10
622.152318
 20
334.143242
 30
0.0
 10
622.152318
 20
325.206323
 30
0.0
 10
622.152318
 20
325.206323
 30
0.0
  0
LWPOLYLINE
  5
50a
100
AcDbEntity
  8
compi_laser_schneiden
 62
7
100
AcDbPolyline
 90
6
 70
1
 10
629.560651
 20
325.206323
 30
0.0
 10
623.210651
 20
325.206323
 30
0.0
 10
623.210651
 20
334.143242
 30
0.0
 10
629.560651
 20
334.143242
 30
0.0
 10
629.560651
 20
325.206323
 30
0.0
 10
629.560651
 20
325.206323
 30
0.0
  0
LWPOLYLINE
  5
50b
100
AcDbEntity
  8
compi_laser_schneiden
 62
7
100
AcDbPolyline
 90
6
 70
1
 10
636.968984
 20
325.206323
 30
0.0
 10
630.618984
 20
325.206323
 30
0.0
 10
630.618984
 20
334.143242
 30
0.0
 10
636.968984
 20
334.143242
 30
0.0
 10
636.968984
 20
325.206323
 30
0.0
 10
636.968984
 20
325.206323
 30
0.0
  0
LWPOLYLINE
  5
50c
100
AcDbEntity
  8
compi_laser_schneiden
 62
7
100
AcDbPolyline
 90
6
 70
1
 10
644.377318
 20
325.206323
 30
0.0
 10
638.027318
 20
325.206323
 30
0.0
 10
638.027318
 20
334.143242
 30
0.0
 10
644.377318
 20
334.143242
 30
0.0
 10
644.377318
 20
325.206323
 30
0.0
 10
644.377318
 20
325.206323
 30
0.0
  0
LWPOLYLINE
  5
50d
100
AcDbEntity
  8
compi_laser_schneiden
 62
7
100
AcDbPolyline
 90
6
 70
1
 10
651.785651
 20
325.206323
 30
0.0
 10
645.435651
 20
325.206323
 30
0.0
 10
645.435651
 20
334.143242
 30
0.0
 10
651.785651
 20
334.143242
 30
0.0
 10
651.785651
 20
325.206323
 30
0.0
 10
651.785651
 20
325.206323
 30
0.0
  0
LWPOLYLINE
  5
50e
100
AcDbEntity
  8
compi_laser_schneiden
 62
7
100
AcDbPolyline
 90
6
 70
1
 10
659.193984
 20
325.206323
 30
0.0
 10
652.843984
 20
325.206323
 30
0.0
 10
652.843984
 20
334.143242
 30
0.0
 10
659.193984
 20
334.143242
 30
0.0
 10
659.193984
 20
325.206323
 30
0.0
 10
659.193984
 20
325.206323
 30
0.0
  0
LWPOLYLINE
  5
50f
100
AcDbEntity
  8
compi_laser_schneiden
 62
7
100
AcDbPolyline
 90
6
 70
1
 10
599.927318
 20
313.879687
 30
0.0
 10
593.577318
 20
313.879687
 30
0.0
 10
593.577318
 20
322.816606
 30
0.0
 10
599.927318
 20
322.816606
 30
0.0
 10
599.927318
 20
313.879687
 30
0.0
 10
599.927318
 20
313.879687
 30
0.0
  0
LWPOLYLINE
  5
510
100
AcDbEntity
  8
compi_laser_schneiden
 62
7
100
AcDbPolyline
 90
6
 70
1
 10
607.335651
 20
313.879687
 30
0.0
 10
600.985651
 20
313.879687
 30
0.0
 10
600.985651
 20
322.816606
 30
0.0
 10
607.335651
 20
322.816606
 30
0.0
 10
607.335651
 20
313.879687
 30
0.0
 10
607.335651
 20
313.879687
 30
0.0
  0
LWPOLYLINE
  5
511
100
AcDbEntity
  8
compi_laser_schneiden
 62
7
100
AcDbPolyline
 90
6
 70
1
 10
614.743984
 20
313.879687
 30
0.0
 10
608.393984
 20
313.879687
 30
0.0
 10
608.393984
 20
322.816606
 30
0.0
 10
614.743984
 20
322.816606
 30
0.0
 10
614.743984
 20
313.879687
 30
0.0
 10
614.743984
 20
313.879687
 30
0.0
  0
LWPOLYLINE
  5
512
100
AcDbEntity
  8
compi_laser_schneiden
 62
7
100
AcDbPolyline
 90
6
 70
1
 10
622.152318
 20
313.879687
 30
0.0
 10
615.802318
 20
313.879687
 30
0.0
 10
615.802318
 20
322.816606
 30
0.0
 10
622.152318
 20
322.816606
 30
0.0
 10
622.152318
 20
313.879687
 30
0.0
 10
622.152318
 20
313.879687
 30
0.0
  0
LWPOLYLINE
  5
513
100
AcDbEntity
  8
compi_laser_schneiden
 62
7
100
AcDbPolyline
 90
6
 70
1
 10
629.560651
 20
313.879687
 30
0.0
 10
623.210651
 20
313.879687
 30
0.0
 10
623.210651
 20
322.816606
 30
0.0
 10
629.560651
 20
322.816606
 30
0.0
 10
629.560651
 20
313.879687
 30
0.0
 10
629.560651
 20
313.879687
 30
0.0
  0
LWPOLYLINE
  5
514
100
AcDbEntity
  8
compi_laser_schneiden
 62
7
100
AcDbPolyline
 90
6
 70
1
 10
636.968984
 20
313.879687
 30
0.0
 10
630.618984
 20
313.879687
 30
0.0
 10
630.618984
 20
322.816606
 30
0.0
 10
636.968984
 20
322.816606
 30
0.0
 10
636.968984
 20
313.879687
 30
0.0
 10
636.968984
 20
313.879687
 30
0.0
  0
LWPOLYLINE
  5
515
100
AcDbEntity
  8
compi_laser_schneiden
 62
7
100
AcDbPolyline
 90
6
 70
1
 10
644.377318
 20
313.879687
 30
0.0
 10
638.027318
 20
313.879687
 30
0.0
 10
638.027318
 20
322.816606
 30
0.0
 10
644.377318
 20
322.816606
 30
0.0
 10
644.377318
 20
313.879687
 30
0.0
 10
644.377318
 20
313.879687
 30
0.0
  0
LWPOLYLINE
  5
516
100
AcDbEntity
  8
compi_laser_schneiden
 62
7
100
AcDbPolyline
 90
6
 70
1
 10
651.785651
 20
313.879687
 30
0.0
 10
645.435651
 20
313.879687
 30
0.0
 10
645.435651
 20
322.816606
 30
0.0
 10
651.785651
 20
322.816606
 30
0.0
 10
651.785651
 20
313.879687
 30
0.0
 10
651.785651
 20
313.879687
 30
0.0
  0
LWPOLYLINE
  5
517
100
AcDbEntity
  8
compi_laser_schneiden
 62
7
100
AcDbPolyline
 90
6
 70
1
 10
659.193984
 20
313.879687
 30
0.0
 10
652.843984
 20
313.879687
 30
0.0
 10
652.843984
 20
322.816606
 30
0.0
 10
659.193984
 20
322.816606
 30
0.0
 10
659.193984
 20
313.879687
 30
0.0
 10
659.193984
 20
313.879687
 30
0.0
  0
LWPOLYLINE
  5
518
100
AcDbEntity
  8
compi_laser_schneiden
 62
7
100
AcDbPolyline
 90
6
 70
1
 10
599.927318
 20
302.738612
 30
0.0
 10
593.577318
 20
302.738612
 30
0.0
 10
593.577318
 20
311.675531
 30
0.0
 10
599.927318
 20
311.675531
 30
0.0
 10
599.927318
 20
302.738612
 30
0.0
 10
599.927318
 20
302.738612
 30
0.0
  0
LWPOLYLINE
  5
519
100
AcDbEntity
  8
compi_laser_schneiden
 62
7
100
AcDbPolyline
 90
6
 70
1
 10
607.335651
 20
302.738612
 30
0.0
 10
600.985651
 20
302.738612
 30
0.0
 10
600.985651
 20
311.675531
 30
0.0
 10
607.335651
 20
311.675531
 30
0.0
 10
607.335651
 20
302.738612
 30
0.0
 10
607.335651
 20
302.738612
 30
0.0
  0
LWPOLYLINE
  5
51a
100
AcDbEntity
  8
compi_laser_schneiden
 62
7
100
AcDbPolyline
 90
6
 70
1
 10
614.743984
 20
302.738612
 30
0.0
 10
608.393984
 20
302.738612
 30
0.0
 10
608.393984
 20
311.675531
 30
0.0
 10
614.743984
 20
311.675531
 30
0.0
 10
614.743984
 20
302.738612
 30
0.0
 10
614.743984
 20
302.738612
 30
0.0
  0
LWPOLYLINE
  5
51b
100
AcDbEntity
  8
compi_laser_schneiden
 62
7
100
AcDbPolyline
 90
6
 70
1
 10
622.152318
 20
302.738612
 30
0.0
 10
615.802318
 20
302.738612
 30
0.0
 10
615.802318
 20
311.675531
 30
0.0
 10
622.152318
 20
311.675531
 30
0.0
 10
622.152318
 20
302.738612
 30
0.0
 10
622.152318
 20
302.738612
 30
0.0
  0
LWPOLYLINE
  5
51c
100
AcDbEntity
  8
compi_laser_schneiden
 62
7
100
AcDbPolyline
 90
6
 70
1
 10
629.560651
 20
302.738612
 30
0.0
 10
623.210651
 20
302.738612
 30
0.0
 10
623.210651
 20
311.675531
 30
0.0
 10
629.560651
 20
311.675531
 30
0.0
 10
629.560651
 20
302.738612
 30
0.0
 10
629.560651
 20
302.738612
 30
0.0
  0
LWPOLYLINE
  5
51d
100
AcDbEntity
  8
compi_laser_schneiden
 62
7
100
AcDbPolyline
 90
6
 70
1
 10
636.968984
 20
302.738612
 30
0.0
 10
630.618984
 20
302.738612
 30
0.0
 10
630.618984
 20
311.675531
 30
0.0
 10
636.968984
 20
311.675531
 30
0.0
 10
636.968984
 20
302.738612
 30
0.0
 10
636.968984
 20
302.738612
 30
0.0
  0
LWPOLYLINE
  5
51e
100
AcDbEntity
  8
compi_laser_schneiden
 62
7
100
AcDbPolyline
 90
6
 70
1
 10
644.377318
 20
302.738612
 30
0.0
 10
638.027318
 20
302.738612
 30
0.0
 10
638.027318
 20
311.675531
 30
0.0
 10
644.377318
 20
311.675531
 30
0.0
 10
644.377318
 20
302.738612
 30
0.0
 10
644.377318
 20
302.738612
 30
0.0
  0
LWPOLYLINE
  5
51f
100
AcDbEntity
  8
compi_laser_schneiden
 62
7
100
AcDbPolyline
 90
6
 70
1
 10
651.785651
 20
302.738612
 30
0.0
 10
645.435651
 20
302.738612
 30
0.0
 10
645.435651
 20
311.675531
 30
0.0
 10
651.785651
 20
311.675531
 30
0.0
 10
651.785651
 20
302.738612
 30
0.0
 10
651.785651
 20
302.738612
 30
0.0
  0
LWPOLYLINE
  5
520
100
AcDbEntity
  8
compi_laser_schneiden
 62
7
100
AcDbPolyline
 90
6
 70
1
 10
659.193984
 20
302.738612
 30
0.0
 10
652.843984
 20
302.738612
 30
0.0
 10
652.843984
 20
311.675531
 30
0.0
 10
659.193984
 20
311.675531
 30
0.0
 10
659.193984
 20
302.738612
 30
0.0
 10
659.193984
 20
302.738612
 30
0.0
  0
LWPOLYLINE
  5
521
100
AcDbEntity
  8
compi_laser_schneiden
 62
7
100
AcDbPolyline
 90
2
 70
0
 10
672.371504
 20
297.502649
 30
0.0
 10
672.371504
 20
339.378782
 30
0.0
  0
LWPOLYLINE
  5
522
100
AcDbEntity
  8
compi_laser_schneiden
 62
7
100
AcDbPolyline
 90
2
 70
0
 10
582.256079
 20
297.502649
 30
0.0
 10
582.256079
 20
339.378782
 30
0.0
  0
LWPOLYLINE
  5
523
100
AcDbEntity
  8
compi_laser_schneiden
 62
7
100
AcDbPolyline
 90
2
 70
0
 10
564.912077
 20
495.486935
 30
0.0
 10
653.904505
 20
495.486935
 30
0.0
  0
LWPOLYLINE
  5
524
100
AcDbEntity
  8
compi_laser_schneiden
 62
7
100
AcDbPolyline
 90
2
 70
0
 10
564.854539
 20
515.611108
 30
0.0
 10
653.846967
 20
515.611108
 30
0.0
  0
LWPOLYLINE
  5
525
100
AcDbEntity
  8
compi_laser_schneiden
 62
7
100
AcDbPolyline
 90
2
 70
0
 10
653.846861
 20
557.487277
 30
0.0
 10
564.969439
 20
557.487277
 30
0.0
  0
LWPOLYLINE
  5
526
100
AcDbEntity
  8
compi_laser_schneiden
 62
7
100
AcDbPolyline
 90
6
 70
1
 10
582.021729
 20
543.314712
 30
0.0
 10
575.671729
 20
543.314712
 30
0.0
 10
575.671729
 20
552.251631
 30
0.0
 10
582.021729
 20
552.251631
 30
0.0
 10
582.021729
 20
543.314712
 30
0.0
 10
582.021729
 20
543.314712
 30
0.0
  0
LWPOLYLINE
  5
527
100
AcDbEntity
  8
compi_laser_schneiden
 62
7
100
AcDbPolyline
 90
6
 70
1
 10
589.430062
 20
543.314712
 30
0.0
 10
583.080062
 20
543.314712
 30
0.0
 10
583.080062
 20
552.251631
 30
0.0
 10
589.430062
 20
552.251631
 30
0.0
 10
589.430062
 20
543.314712
 30
0.0
 10
589.430062
 20
543.314712
 30
0.0
  0
LWPOLYLINE
  5
528
100
AcDbEntity
  8
compi_laser_schneiden
 62
7
100
AcDbPolyline
 90
6
 70
1
 10
596.838395
 20
543.314712
 30
0.0
 10
590.488395
 20
543.314712
 30
0.0
 10
590.488395
 20
552.251631
 30
0.0
 10
596.838395
 20
552.251631
 30
0.0
 10
596.838395
 20
543.314712
 30
0.0
 10
596.838395
 20
543.314712
 30
0.0
  0
LWPOLYLINE
  5
529
100
AcDbEntity
  8
compi_laser_schneiden
 62
7
100
AcDbPolyline
 90
6
 70
1
 10
604.246729
 20
543.314712
 30
0.0
 10
597.896729
 20
543.314712
 30
0.0
 10
597.896729
 20
552.251631
 30
0.0
 10
604.246729
 20
552.251631
 30
0.0
 10
604.246729
 20
543.314712
 30
0.0
 10
604.246729
 20
543.314712
 30
0.0
  0
LWPOLYLINE
  5
52a
100
AcDbEntity
  8
compi_laser_schneiden
 62
7
100
AcDbPolyline
 90
6
 70
1
 10
611.655062
 20
543.314712
 30
0.0
 10
605.305062
 20
543.314712
 30
0.0
 10
605.305062
 20
552.251631
 30
0.0
 10
611.655062
 20
552.251631
 30
0.0
 10
611.655062
 20
543.314712
 30
0.0
 10
611.655062
 20
543.314712
 30
0.0
  0
LWPOLYLINE
  5
52b
100
AcDbEntity
  8
compi_laser_schneiden
 62
7
100
AcDbPolyline
 90
6
 70
1
 10
619.063395
 20
543.314712
 30
0.0
 10
612.713395
 20
543.314712
 30
0.0
 10
612.713395
 20
552.251631
 30
0.0
 10
619.063395
 20
552.251631
 30
0.0
 10
619.063395
 20
543.314712
 30
0.0
 10
619.063395
 20
543.314712
 30
0.0
  0
LWPOLYLINE
  5
52c
100
AcDbEntity
  8
compi_laser_schneiden
 62
7
100
AcDbPolyline
 90
6
 70
1
 10
626.471729
 20
543.314712
 30
0.0
 10
620.121729
 20
543.314712
 30
0.0
 10
620.121729
 20
552.251631
 30
0.0
 10
626.471729
 20
552.251631
 30
0.0
 10
626.471729
 20
543.314712
 30
0.0
 10
626.471729
 20
543.314712
 30
0.0
  0
LWPOLYLINE
  5
52d
100
AcDbEntity
  8
compi_laser_schneiden
 62
7
100
AcDbPolyline
 90
6
 70
1
 10
633.880062
 20
543.314712
 30
0.0
 10
627.530062
 20
543.314712
 30
0.0
 10
627.530062
 20
552.251631
 30
0.0
 10
633.880062
 20
552.251631
 30
0.0
 10
633.880062
 20
543.314712
 30
0.0
 10
633.880062
 20
543.314712
 30
0.0
  0
LWPOLYLINE
  5
52e
100
AcDbEntity
  8
compi_laser_schneiden
 62
7
100
AcDbPolyline
 90
6
 70
1
 10
641.288395
 20
543.314712
 30
0.0
 10
634.938395
 20
543.314712
 30
0.0
 10
634.938395
 20
552.251631
 30
0.0
 10
641.288395
 20
552.251631
 30
0.0
 10
641.288395
 20
543.314712
 30
0.0
 10
641.288395
 20
543.314712
 30
0.0
  0
LWPOLYLINE
  5
52f
100
AcDbEntity
  8
compi_laser_schneiden
 62
7
100
AcDbPolyline
 90
6
 70
1
 10
582.021729
 20
531.988076
 30
0.0
 10
575.671729
 20
531.988076
 30
0.0
 10
575.671729
 20
540.924995
 30
0.0
 10
582.021729
 20
540.924995
 30
0.0
 10
582.021729
 20
531.988076
 30
0.0
 10
582.021729
 20
531.988076
 30
0.0
  0
LWPOLYLINE
  5
530
100
AcDbEntity
  8
compi_laser_schneiden
 62
7
100
AcDbPolyline
 90
6
 70
1
 10
589.430062
 20
531.988076
 30
0.0
 10
583.080062
 20
531.988076
 30
0.0
 10
583.080062
 20
540.924995
 30
0.0
 10
589.430062
 20
540.924995
 30
0.0
 10
589.430062
 20
531.988076
 30
0.0
 10
589.430062
 20
531.988076
 30
0.0
  0
LWPOLYLINE
  5
531
100
AcDbEntity
  8
compi_laser_schneiden
 62
7
100
AcDbPolyline
 90
6
 70
1
 10
596.838395
 20
531.988076
 30
0.0
 10
590.488395
 20
531.988076
 30
0.0
 10
590.488395
 20
540.924995
 30
0.0
 10
596.838395
 20
540.924995
 30
0.0
 10
596.838395
 20
531.988076
 30
0.0
 10
596.838395
 20
531.988076
 30
0.0
  0
LWPOLYLINE
  5
532
100
AcDbEntity
  8
compi_laser_schneiden
 62
7
100
AcDbPolyline
 90
6
 70
1
 10
604.246729
 20
531.988076
 30
0.0
 10
597.896729
 20
531.988076
 30
0.0
 10
597.896729
 20
540.924995
 30
0.0
 10
604.246729
 20
540.924995
 30
0.0
 10
604.246729
 20
531.988076
 30
0.0
 10
604.246729
 20
531.988076
 30
0.0
  0
LWPOLYLINE
  5
533
100
AcDbEntity
  8
compi_laser_schneiden
 62
7
100
AcDbPolyline
 90
6
 70
1
 10
611.655062
 20
531.988076
 30
0.0
 10
605.305062
 20
531.988076
 30
0.0
 10
605.305062
 20
540.924995
 30
0.0
 10
611.655062
 20
540.924995
 30
0.0
 10
611.655062
 20
531.988076
 30
0.0
 10
611.655062
 20
531.988076
 30
0.0
  0
LWPOLYLINE
  5
534
100
AcDbEntity
  8
compi_laser_schneiden
 62
7
100
AcDbPolyline
 90
6
 70
1
 10
619.063395
 20
531.988076
 30
0.0
 10
612.713395
 20
531.988076
 30
0.0
 10
612.713395
 20
540.924995
 30
0.0
 10
619.063395
 20
540.924995
 30
0.0
 10
619.063395
 20
531.988076
 30
0.0
 10
619.063395
 20
531.988076
 30
0.0
  0
LWPOLYLINE
  5
535
100
AcDbEntity
  8
compi_laser_schneiden
 62
7
100
AcDbPolyline
 90
6
 70
1
 10
626.471729
 20
531.988076
 30
0.0
 10
620.121729
 20
531.988076
 30
0.0
 10
620.121729
 20
540.924995
 30
0.0
 10
626.471729
 20
540.924995
 30
0.0
 10
626.471729
 20
531.988076
 30
0.0
 10
626.471729
 20
531.988076
 30
0.0
  0
LWPOLYLINE
  5
536
100
AcDbEntity
  8
compi_laser_schneiden
 62
7
100
AcDbPolyline
 90
6
 70
1
 10
633.880062
 20
531.988076
 30
0.0
 10
627.530062
 20
531.988076
 30
0.0
 10
627.530062
 20
540.924995
 30
0.0
 10
633.880062
 20
540.924995
 30
0.0
 10
633.880062
 20
531.988076
 30
0.0
 10
633.880062
 20
531.988076
 30
0.0
  0
LWPOLYLINE
  5
537
100
AcDbEntity
  8
compi_laser_schneiden
 62
7
100
AcDbPolyline
 90
6
 70
1
 10
641.288395
 20
531.988076
 30
0.0
 10
634.938395
 20
531.988076
 30
0.0
 10
634.938395
 20
540.924995
 30
0.0
 10
641.288395
 20
540.924995
 30
0.0
 10
641.288395
 20
531.988076
 30
0.0
 10
641.288395
 20
531.988076
 30
0.0
  0
LWPOLYLINE
  5
538
100
AcDbEntity
  8
compi_laser_schneiden
 62
7
100
AcDbPolyline
 90
6
 70
1
 10
582.021729
 20
520.847001
 30
0.0
 10
575.671729
 20
520.847001
 30
0.0
 10
575.671729
 20
529.783920
 30
0.0
 10
582.021729
 20
529.783920
 30
0.0
 10
582.021729
 20
520.847001
 30
0.0
 10
582.021729
 20
520.847001
 30
0.0
  0
LWPOLYLINE
  5
539
100
AcDbEntity
  8
compi_laser_schneiden
 62
7
100
AcDbPolyline
 90
6
 70
1
 10
589.430062
 20
520.847001
 30
0.0
 10
583.080062
 20
520.847001
 30
0.0
 10
583.080062
 20
529.783920
 30
0.0
 10
589.430062
 20
529.783920
 30
0.0
 10
589.430062
 20
520.847001
 30
0.0
 10
589.430062
 20
520.847001
 30
0.0
  0
LWPOLYLINE
  5
53a
100
AcDbEntity
  8
compi_laser_schneiden
 62
7
100
AcDbPolyline
 90
6
 70
1
 10
596.838395
 20
520.847001
 30
0.0
 10
590.488395
 20
520.847001
 30
0.0
 10
590.488395
 20
529.783920
 30
0.0
 10
596.838395
 20
529.783920
 30
0.0
 10
596.838395
 20
520.847001
 30
0.0
 10
596.838395
 20
520.847001
 30
0.0
  0
LWPOLYLINE
  5
53b
100
AcDbEntity
  8
compi_laser_schneiden
 62
7
100
AcDbPolyline
 90
6
 70
1
 10
604.246729
 20
520.847001
 30
0.0
 10
597.896729
 20
520.847001
 30
0.0
 10
597.896729
 20
529.783920
 30
0.0
 10
604.246729
 20
529.783920
 30
0.0
 10
604.246729
 20
520.847001
 30
0.0
 10
604.246729
 20
520.847001
 30
0.0
  0
LWPOLYLINE
  5
53c
100
AcDbEntity
  8
compi_laser_schneiden
 62
7
100
AcDbPolyline
 90
6
 70
1
 10
611.655062
 20
520.847001
 30
0.0
 10
605.305062
 20
520.847001
 30
0.0
 10
605.305062
 20
529.783920
 30
0.0
 10
611.655062
 20
529.783920
 30
0.0
 10
611.655062
 20
520.847001
 30
0.0
 10
611.655062
 20
520.847001
 30
0.0
  0
LWPOLYLINE
  5
53d
100
AcDbEntity
  8
compi_laser_schneiden
 62
7
100
AcDbPolyline
 90
6
 70
1
 10
619.063395
 20
520.847001
 30
0.0
 10
612.713395
 20
520.847001
 30
0.0
 10
612.713395
 20
529.783920
 30
0.0
 10
619.063395
 20
529.783920
 30
0.0
 10
619.063395
 20
520.847001
 30
0.0
 10
619.063395
 20
520.847001
 30
0.0
  0
LWPOLYLINE
  5
53e
100
AcDbEntity
  8
compi_laser_schneiden
 62
7
100
AcDbPolyline
 90
6
 70
1
 10
626.471729
 20
520.847001
 30
0.0
 10
620.121729
 20
520.847001
 30
0.0
 10
620.121729
 20
529.783920
 30
0.0
 10
626.471729
 20
529.783920
 30
0.0
 10
626.471729
 20
520.847001
 30
0.0
 10
626.471729
 20
520.847001
 30
0.0
  0
LWPOLYLINE
  5
53f
100
AcDbEntity
  8
compi_laser_schneiden
 62
7
100
AcDbPolyline
 90
6
 70
1
 10
633.880062
 20
520.847001
 30
0.0
 10
627.530062
 20
520.847001
 30
0.0
 10
627.530062
 20
529.783920
 30
0.0
 10
633.880062
 20
529.783920
 30
0.0
 10
633.880062
 20
520.847001
 30
0.0
 10
633.880062
 20
520.847001
 30
0.0
  0
LWPOLYLINE
  5
540
100
AcDbEntity
  8
compi_laser_schneiden
 62
7
100
AcDbPolyline
 90
6
 70
1
 10
641.288395
 20
520.847001
 30
0.0
 10
634.938395
 20
520.847001
 30
0.0
 10
634.938395
 20
529.783920
 30
0.0
 10
641.288395
 20
529.783920
 30
0.0
 10
641.288395
 20
520.847001
 30
0.0
 10
641.288395
 20
520.847001
 30
0.0
  0
LWPOLYLINE
  5
541
100
AcDbEntity
  8
compi_laser_schneiden
 62
7
100
AcDbPolyline
 90
2
 70
0
 10
654.465951
 20
515.611108
 30
0.0
 10
654.465951
 20
557.487242
 30
0.0
  0
LWPOLYLINE
  5
542
100
AcDbEntity
  8
compi_laser_schneiden
 62
7
100
AcDbPolyline
 90
2
 70
0
 10
564.350525
 20
515.611108
 30
0.0
 10
564.350525
 20
557.487242
 30
0.0
  0
LWPOLYLINE
  5
543
100
AcDbEntity
  8
compi_laser_schneiden
 62
7
100
AcDbPolyline
 90
2
 70
0
 10
49.894586
 20
512.049429
 30
0.0
 10
49.894586
 20
451.678567
 30
0.0
  0
LWPOLYLINE
  5
544
100
AcDbEntity
  8
compi_laser_schneiden
 62
7
100
AcDbPolyline
 90
2
 70
0
 10
233.430682
 20
512.049429
 30
0.0
 10
233.430682
 20
451.678567
 30
0.0
  0
LWPOLYLINE
  5
545
100
AcDbEntity
  8
compi_laser_schneiden
 62
7
100
AcDbPolyline
 90
2
 70
0
 10
196.583820
 20
430.035122
 30
0.0
 10
196.583820
 20
369.664260
 30
0.0
  0
LWPOLYLINE
  5
546
100
AcDbEntity
  8
compi_laser_schneiden
 62
7
100
AcDbPolyline
 90
2
 70
0
 10
380.119916
 20
430.035122
 30
0.0
 10
380.119916
 20
369.664260
 30
0.0
  0
LWPOLYLINE
  5
547
100
AcDbEntity
  8
compi_laser_schneiden
 62
7
100
AcDbPolyline
 90
2
 70
0
 10
49.802088
 20
299.193513
 30
0.0
 10
49.802088
 20
238.822652
 30
0.0
  0
LWPOLYLINE
  5
548
100
AcDbEntity
  8
compi_laser_schneiden
 62
7
100
AcDbPolyline
 90
2
 70
0
 10
233.338184
 20
299.193513
 30
0.0
 10
233.338184
 20
238.822652
 30
0.0
  0
LWPOLYLINE
  5
549
100
AcDbEntity
  8
compi_laser_schneiden
 62
7
100
AcDbPolyline
 90
2
 70
0
 10
424.340645
 20
432.502837
 30
0.0
 10
424.340645
 20
372.131976
 30
0.0
  0
LWPOLYLINE
  5
54a
100
AcDbEntity
  8
compi_laser_schneiden
 62
7
100
AcDbPolyline
 90
2
 70
0
 10
607.876565
 20
432.502837
 30
0.0
 10
607.876565
 20
372.131976
 30
0.0
  0
LWPOLYLINE
  5
54b
100
AcDbEntity
  8
compi_laser_schneiden
 62
7
100
AcDbPolyline
 90
2
 70
0
 10
196.227620
 20
217.192647
 30
0.0
 10
196.227620
 20
156.821785
 30
0.0
  0
LWPOLYLINE
  5
54c
100
AcDbEntity
  8
compi_laser_schneiden
 62
7
100
AcDbPolyline
 90
2
 70
0
 10
379.763504
 20
217.192647
 30
0.0
 10
379.763504
 20
156.821785
 30
0.0
  0
LWPOLYLINE
  5
54d
100
AcDbEntity
  8
compi_laser_schneiden
 62
7
100
AcDbPolyline
 90
2
 70
0
 10
424.726161
 20
219.633834
 30
0.0
 10
424.726161
 20
159.262972
 30
0.0
  0
LWPOLYLINE
  5
54e
100
AcDbEntity
  8
compi_laser_schneiden
 62
7
100
AcDbPolyline
 90
2
 70
0
 10
608.262045
 20
219.633834
 30
0.0
 10
608.262045
 20
159.262972
 30
0.0
  0
LWPOLYLINE
  5
54f
100
AcDbEntity
  8
compi_laser_schneiden
 62
7
100
AcDbPolyline
 90
5
 70
0
 10
150.069010
 20
523.948589
 30
0.0
 10
60.069049
 20
523.948589
 30
0.0
 10
60.068979
 20
568.948570
 30
0.0
 10
150.068940
 20
568.948570
 30
0.0
 10
150.068940
 20
523.948589
 30
0.0
  0
LWPOLYLINE
  5
550
100
AcDbEntity
  8
compi_laser_schneiden
 62
7
100
AcDbPolyline
 90
2
 70
0
 10
60.068979
 20
503.824064
 30
0.0
 10
60.068979
 20
523.948625
 30
0.0
  0
LWPOLYLINE
  5
551
100
AcDbEntity
  8
compi_laser_schneiden
 62
7
100
AcDbPolyline
 90
2
 70
0
 10
150.069010
 20
503.824064
 30
0.0
 10
59.954044
 20
503.824064
 30
0.0
  0
LWPOLYLINE
  5
552
100
AcDbEntity
  8
compi_laser_schneiden
 62
7
100
AcDbPolyline
 90
2
 70
0
 10
150.069010
 20
523.948589
 30
0.0
 10
150.069010
 20
503.824028
 30
0.0
  0
LWPOLYLINE
  5
553
100
AcDbEntity
  8
compi_laser_schneiden
 62
7
100
AcDbPolyline
 90
2
 70
0
 10
60.068979
 20
457.948665
 30
0.0
 10
150.068940
 20
457.948665
 30
0.0
  0
LWPOLYLINE
  5
554
100
AcDbEntity
  8
compi_laser_schneiden
 62
7
100
AcDbPolyline
 90
2
 70
0
 10
59.953938
 20
444.948592
 30
0.0
 10
150.068904
 20
444.948592
 30
0.0
  0
LWPOLYLINE
  5
555
100
AcDbEntity
  8
compi_laser_schneiden
 62
7
100
AcDbPolyline
 90
2
 70
0
 10
40.199582
 20
500.700075
 30
0.0
 10
47.228326
 20
456.252545
 30
0.0
  0
LWPOLYLINE
  5
556
100
AcDbEntity
  8
compi_laser_schneiden
 62
7
100
AcDbPolyline
 90
2
 70
0
 10
59.953938
 20
503.824064
 30
0.0
 10
40.199441
 20
500.700216
 30
0.0
  0
LWPOLYLINE
  5
557
100
AcDbEntity
  8
compi_laser_schneiden
 62
7
100
AcDbPolyline
 90
2
 70
0
 10
47.228432
 20
456.252474
 30
0.0
 10
59.953832
 20
457.948630
 30
0.0
  0
LWPOLYLINE
  5
558
100
AcDbEntity
  8
compi_laser_schneiden
 62
7
100
AcDbPolyline
 90
2
 70
0
 10
150.069010
 20
503.824064
 30
0.0
 10
150.069010
 20
444.948628
 30
0.0
  0
LWPOLYLINE
  5
559
100
AcDbEntity
  8
compi_laser_schneiden
 62
2
100
AcDbPolyline
 90
2
 70
0
 10
59.953938
 20
444.948592
 30
0.0
 10
59.953938
 20
457.948806
 30
0.0
  0
ENDSEC
  0
SECTION
  2
OBJECTS
  0
DICTIONARY
  5
C
330
0
100
AcDbDictionary
  3
ACAD_GROUP
350
D
  3
ACAD_MLINESTYLE
350
17
  0
DICTIONARY
  5
D
330
C
100
AcDbDictionary
  0
DICTIONARY
  5
1A
330
C
100
AcDbDictionary
  0
DICTIONARY
  5
17
330
C
100
AcDbDictionary
  3
STANDARD
350
18
  0
DICTIONARY
  5
19
330
C
100
AcDbDictionary
  0
ENDSEC
  0
EOF
